Sound will begin in 5 seconds

I am so numb

Chords
01234567891011121314151617181920212223
E
B
G
D
A
E
B
0 1 2 3 4 5 6 7 8 9 10 11 12 13 14 15 16 17 18 19 20 21 22 23
Song Science #1: How Pros Use 6 Chords to Write Hit Songs
(/) Slide Up  (\) Slide Down  (h) Hammer On  (p) Pull Off  (b) Bend (r) Release (v) Vibrato

Stave 1:

Ds|-------------------------------------------------------------
As|----------------------------------------7--5-----------------
Fs|--------7--4----------------------------------7--6-----------
Cs|--------------7--5--4-----5p4-----------------------7-----4--
Gs|-------------------------------5-----------------------------
Cs|--0-------------------------------0--------------------------

Stave 2:

Ds|---------------------------------------------------------------
As|-------------------------------------7--5----------------------
Fs|-----7--4----------------------------------7--6--7-----7p6-----
Cs|-----------7--5--4-----5p4----------------------------------7--
Gs|----------------------------5----------------------------------
Cs|--0----------------------------0-------------------------------

Stave 3:

Ds|--------x---x------------------------
As|-----7--10--10-----------------------
Fs|--7--x--7---7---6--7--11--9--14--14--
Cs|--4--4--x---x--------------------16--
Gs|--5--5--9---9------------------------
Cs|--0--0--0---9---4--5--9---7--12--12--

http://www.guitartabcreator.com
Guitar Tab Creator is intended to store guitar tab created through the tool. It currently does not support in-line text editing. Any text you place in here will be lost. If you need to comment on your tab, please use the "Tab Notes" section located below.