Sound will begin in 5 seconds

Anxiety

Chords
01234567891011121314151617181920212223
E
B
G
D
A
E
B
0 1 2 3 4 5 6 7 8 9 10 11 12 13 14 15 16 17 18 19 20 21 22 23
Song Science #1: How Pros Use 6 Chords to Write Hit Songs
(/) Slide Up  (\) Slide Down  (h) Hammer On  (p) Pull Off  (b) Bend (r) Release (v) Vibrato

Stave 1:

E |--12--0-----------
C |--0---0-----------
Gb|--12--9--7--2--7--
B |--0---9--5--2--5--
Ab|--12--8--5--1--5--
E |--0---9--5--2--5--

Stave 2:

E |--------------------------------------------------------------
C |--------------------------------------------------------------
Gb|-------------12-----------------------------------------------
B |---------10------10--------------------10-------------10------
Ab|-----12--------------12-----12-----12------12-----12------12--
E |--0----------------------0------9--------------9--------------

Stave 3:

E |--------------------------------------------------
C |--------------------------------------------------
Gb|-----------9--------------------------------------
B |--------7-----7-----------------2-----------9-----
Ab|-----8-----------8-----8-----1-----1-----5-----5--
E |--5-----------------5-----2-----------5-----------

Stave 4:

E |--12-----------12-----------
C |--0------------0------------
Gb|--12--9--5--7--12--9--9--7--
B |--0---9--4--5--0---9--7--5--
Ab|--12--8--3--5--12--8--7--5--
E |--0---9--4--5--0---9--7--5--

http://www.guitartabcreator.com
Guitar Tab Creator is intended to store guitar tab created through the tool. It currently does not support in-line text editing. Any text you place in here will be lost. If you need to comment on your tab, please use the "Tab Notes" section located below.