Esclavo de la comida

Chords

01234567891011121314151617181920212223
E
B
G
D
A
E
B
0 1 2 3 4 5 6 7 8 9 10 11 12 13 14 15 16 17 18 19 20 21 22 23
(/) Slide Up  (\) Slide Down  (h) Hammer On  (p) Pull Off  (b) Bend (r) Release (v) Vibrato

Stave 1:

E|--------------------------|--------------------------|--------------------|--------------------------------------|--
B|--------------------------|--------------------------|--------------------|--------------------------------------|--
G|--------------------------|--7--7--7--7--6--6--6--6--|--------------------|-----------------------7-----------6--|--
D|--7--7--7--7--7--7--7--7--|--------------------------|--3--3--3--5--5--5--|--7--7--5--7--3--7--3-----7--7--5-----|--
A|--------------------------|--------------------------|--------------------|--------------------------------------|--
E|--------------------------|--------------------------|--------------------|--------------------------------------|--

Stave 2:

E|-----------------------|--------------------------------|--------------------------|--------------------------|--
B|-----------------------|--------------------------------|--------------------------|--------------------------|--
G|--7-----7-----6--6--6--|--------------------------------|--------------------------|--7--7--7--7--6--6--6--6--|--
D|-----5-----3-----------|--3--3--3--3--7--3--3--5--5--7--|--7--7--7--7--7--7--7--7--|--------------------------|--
A|-----------------------|--------------------------------|--------------------------|--------------------------|--
E|-----------------------|--------------------------------|--------------------------|--------------------------|--

Stave 3:

E|-----------------------|-----------------------|-----------------|-----------------|--
B|-----------------8-----|-----------------------|--------------8--|-----------------|--
G|-----------------------|-----------------------|--7--7--7--7--7--|--5--4--5--0-----|--
D|--3--3--3--5--5-----5--|--7--7--7--7--7--7--7--|--------------7--|--3--5--------5--|--
A|-----------------------|-----------------------|-----------------|-----------------|--
E|-----------------------|-----------------------|-----------------|-----------------|--

Stave 4:

E|-------------------------|-----------------------|------------------------------|-------------------------------|--
B|-------------------------|-----------------------|------------------------------|-------------------------------|--
G|--------12--------12--7--|-----------------------|-----------------------10-----|-----------------------10--12--|--
D|--7--7------7--7---------|--3--3--3--3--7--3--9--|--7--7--7--7--7--7--7---------|--3--3--3--3--3--3--3----------|--
A|-------------------------|-----------------------|---------------------------2--|-------------------------------|--
E|-------------------------|-----------------------|------------------------------|-------------------------------|--

Stave 5:

E|----------------------------|--------------------------13--15--|--------------------------|--------------------------
B|----------------------------|----------------------------------|--------------------------|--------------------------
G|--------------------10--12--|--10--10--10--10--10--10----------|--------------------------|--------------------------
D|--7--7--7--7--7--7----------|----------------------------------|--7--7--7--7--7--7--7--7--|--3--3--3--3--3--3--3--3--
A|----------------------------|----------------------------------|--------------------------|--------------------------
E|----------------------------|----------------------------------|--------------------------|--------------------------

Stave 6:

E|-----------------------|-------------------------|-----------------1--3--|-----------------------------------------|--
B|-----------------6--8--|-------------------------|-----------------------|-----------------------------------------|--
G|-----------------------|-----------------10--12--|--2--2--2--2--2--------|--------------10--10--12--9--------------|--
D|--7--7--7--7--7--------|-------------------------|-----------------------|--------------------------------------0--|--
A|-----------------------|--8--8--8--8--8----------|-----------------------|--8--8--8--8-----------------4--2--0-----|--
E|-----------------------|-------------------------|-----------------------|-----------------------------------------|--

							http://www.guitartabcreator.com
Instruments
{"strings":[[[".",".",".",".",".",".",".",".","|",".",".",".",".",".",".",".",".","|",".",".",".",".",".",".","|",".",".",".",".",".",".",".",".",".",".",".",".","|"],[".",".",".",".",".",".",".",".","|",".",".",".",".",".",".",".",".","|",".",".",".",".",".",".","|",".",".",".",".",".",".",".",".",".",".",".",".","|"],[".",".",".",".",".",".",".",".","|",7,7,7,7,6,6,6,6,"|",".",".",".",".",".",".","|",".",".",".",".",".",".",".",7,".",".",".",6,"|"],[7,7,7,7,7,7,7,7,"|",".",".",".",".",".",".",".",".","|",3,3,3,5,5,5,"|",7,7,5,7,3,7,3,".",7,7,5,".","|"],[".",".",".",".",".",".",".",".","|",".",".",".",".",".",".",".",".","|",".",".",".",".",".",".","|",".",".",".",".",".",".",".",".",".",".",".",".","|"],[".",".",".",".",".",".",".",".","|",".",".",".",".",".",".",".",".","|",".",".",".",".",".",".","|",".",".",".",".",".",".",".",".",".",".",".",".","|"]],[[".",".",".",".",".",".",".","|",".",".",".",".",".",".",".",".",".",".","|",".",".",".",".",".",".",".",".","|",".",".",".",".",".",".",".",".","|"],[".",".",".",".",".",".",".","|",".",".",".",".",".",".",".",".",".",".","|",".",".",".",".",".",".",".",".","|",".",".",".",".",".",".",".",".","|"],[7,".",7,".",6,6,6,"|",".",".",".",".",".",".",".",".",".",".","|",".",".",".",".",".",".",".",".","|",7,7,7,7,6,6,6,6,"|"],[".",5,".",3,".",".",".","|",3,3,3,3,7,3,3,5,5,7,"|",7,7,7,7,7,7,7,7,"|",".",".",".",".",".",".",".",".","|"],[".",".",".",".",".",".",".","|",".",".",".",".",".",".",".",".",".",".","|",".",".",".",".",".",".",".",".","|",".",".",".",".",".",".",".",".","|"],[".",".",".",".",".",".",".","|",".",".",".",".",".",".",".",".",".",".","|",".",".",".",".",".",".",".",".","|",".",".",".",".",".",".",".",".","|"]],[[".",".",".",".",".",".",".","|",".",".",".",".",".",".",".","|",".",".",".",".",".","|",".",".",".",".",".","|"],[".",".",".",".",".",8,".","|",".",".",".",".",".",".",".","|",".",".",".",".",8,"|",".",".",".",".",".","|"],[".",".",".",".",".",".",".","|",".",".",".",".",".",".",".","|",7,7,7,7,7,"|",5,4,5,0,".","|"],[3,3,3,5,5,".",5,"|",7,7,7,7,7,7,7,"|",".",".",".",".",7,"|",3,5,".",".",5,"|"],[".",".",".",".",".",".",".","|",".",".",".",".",".",".",".","|",".",".",".",".",".","|",".",".",".",".",".","|"],[".",".",".",".",".",".",".","|",".",".",".",".",".",".",".","|",".",".",".",".",".","|",".",".",".",".",".","|"]],[[".",".",".",".",".",".",".","|",".",".",".",".",".",".",".","|",".",".",".",".",".",".",".",".",".","|",".",".",".",".",".",".",".",".",".","|"],[".",".",".",".",".",".",".","|",".",".",".",".",".",".",".","|",".",".",".",".",".",".",".",".",".","|",".",".",".",".",".",".",".",".",".","|"],[".",".",12,".",".",12,7,"|",".",".",".",".",".",".",".","|",".",".",".",".",".",".",".",10,".","|",".",".",".",".",".",".",".",10,12,"|"],[7,7,".",7,7,".",".","|",3,3,3,3,7,3,9,"|",7,7,7,7,7,7,7,".",".","|",3,3,3,3,3,3,3,".",".","|"],[".",".",".",".",".",".",".","|",".",".",".",".",".",".",".","|",".",".",".",".",".",".",".",".",2,"|",".",".",".",".",".",".",".",".",".","|"],[".",".",".",".",".",".",".","|",".",".",".",".",".",".",".","|",".",".",".",".",".",".",".",".",".","|",".",".",".",".",".",".",".",".",".","|"]],[[".",".",".",".",".",".",".",".","|",".",".",".",".",".",".",13,15,"|",".",".",".",".",".",".",".",".","|",".",".",".",".",".",".",".","."],[".",".",".",".",".",".",".",".","|",".",".",".",".",".",".",".",".","|",".",".",".",".",".",".",".",".","|",".",".",".",".",".",".",".","."],[".",".",".",".",".",".",10,12,"|",10,10,10,10,10,10,".",".","|",".",".",".",".",".",".",".",".","|",".",".",".",".",".",".",".","."],[7,7,7,7,7,7,".",".","|",".",".",".",".",".",".",".",".","|",7,7,7,7,7,7,7,7,"|",3,3,3,3,3,3,3,3],[".",".",".",".",".",".",".",".","|",".",".",".",".",".",".",".",".","|",".",".",".",".",".",".",".",".","|",".",".",".",".",".",".",".","."],[".",".",".",".",".",".",".",".","|",".",".",".",".",".",".",".",".","|",".",".",".",".",".",".",".",".","|",".",".",".",".",".",".",".","."]],[[".",".",".",".",".",".",".","|",".",".",".",".",".",".",".","|",".",".",".",".",".",1,3,"|",".",".",".",".",".",".",".",".",".",".",".",".","|"],[".",".",".",".",".",6,8,"|",".",".",".",".",".",".",".","|",".",".",".",".",".",".",".","|",".",".",".",".",".",".",".",".",".",".",".",".","|"],[".",".",".",".",".",".",".","|",".",".",".",".",".",10,12,"|",2,2,2,2,2,".",".","|",".",".",".",".",10,10,12,9,".",".",".",".","|"],[7,7,7,7,7,".",".","|",".",".",".",".",".",".",".","|",".",".",".",".",".",".",".","|",".",".",".",".",".",".",".",".",".",".",".",0,"|"],[".",".",".",".",".",".",".","|",8,8,8,8,8,".",".","|",".",".",".",".",".",".",".","|",8,8,8,8,".",".",".",".",4,2,0,".","|"],[".",".",".",".",".",".",".","|",".",".",".",".",".",".",".","|",".",".",".",".",".",".",".","|",".",".",".",".",".",".",".",".",".",".",".",".","|"]]],"numberofstrings":6,"notes":["E","B","G","D","A","E","B"],"capo":0,"stringnotes":["E4","B3","G3","D3","A2","E2"],"comments":["Stave 1:","Stave 2:","Stave 3:","Stave 4:","Stave 5:","Stave 6:"],"timing":[[null,null,null,null,null,null,null,null,null,null,null,null,null,null,null,null,null,null,null,null,null,null,null,null,null,null,null,null,null,null,null,null,null,null,null,null,null],[null,null,null,null,null,null,null,null,null,null,null,null,null,null,null,null,null,null,null,null,null,null,null,null,null,null,null,null,null,null,null,null,null,null,null,null,null,null,null,null],[null,null,null,null,null,null,null,null,null,null,null,null,null,null,null,null,null,null,null,null,null,null,null,null,null,null,null],[null,null,null,null,null,null,null,null,null,null,null,null,null,null,null,null,null,null,null,null,null,null,null,null,null,null,null,null,null,null,null,null,null,null,null],[null,null,null,null,null,null,null,null,null,null,null,null,null,null,null,null,null,null,null,null,null,null,null,null,null,null,null,null,null,null,null,null,null,null,null],[null,null,null,null,null,null,null,null,null,null,null,null,null,null,null,null,null,null,null,null,null,null,null,null,null,null,null,null,null,null,null,null,null,null,null,null]],"timingvisible":false,"tabcounter":37,"stave":5,"totalstaves":6,"instrument":"6guitar","selectedtuning":"6_standard","version":"13"}

Member for

3 hours 6 minutes
About Me
I want to learn the ways of the tab
Submitted by bochini on Thu, 2020-10-15 17:58