Sound will begin in 5 seconds

Naruto- Silhouette

01234567891011121314151617181920212223
E
B
G
D
A
E
B
0 1 2 3 4 5 6 7 8 9 10 11 12 13 14 15 16 17 18 19 20 21 22 23
Song Science #1: How Pros Use 6 Chords to Write Hit Songs
(/) Slide Up  (\) Slide Down  (h) Hammer On  (p) Pull Off  (b) Bend (r) Release (v) Vibrato

Stave 1:

E|-----------------------------------------------15-14----15-14-------14----
B|-------------------------------------7-8-7-----------15-------15-17----14-
G|-------7-7-------7-7-----7---7-9---9-------9-7----------------------------
D|-9-7-9-----9-7-9-----9-7---7-----7----------------------------------------
A|--------------------------------------------------------------------------
E|--------------------------------------------------------------------------

Stave 2:

E|-------------------------------------7------7----------------
B|-7-----7-----7-7-------10-10-----------10-----10-------------
G|---7-9---7-7-----9-7-9-------7-6-9-7------7------7-7-6-7-9-6-
D|-------------------------------------------------------------
A|-------------------------------------------------------------
E|-------------------------------------------------------------

Stave 3:

E|-------------------7-------------------------------
B|---7-7-----7-7-------7---------------------7-------
G|-7-----7-7-----7-7-----7---6-7-7-6-7-9-9-9---9-7-9-
D|-------------------------7-------------------------
A|---------------------------------------------------
E|---------------------------------------------------

Stave 4:

E|-------------------------------------7------7--------------
B|-------7-7---------------8-7---7-------10-----10-----------
G|-7---7-----9-7/9-9---7-9-----9---9-7------7------7-7-6-7-9-
D|---7---------------7---------------------------------------
A|-----------------------------------------------------------
E|-----------------------------------------------------------

Stave 5:

E|-17-14-------17-14-------19-14-------------------14----------------------
B|-------17-17-------17-17-------17-15----14-15-15----17-15----17-15-17-15-
G|-------------------------------------16-------------------16-------------
D|-------------------------------------------------------------------------
A|-------------------------------------------------------------------------
E|-------------------------------------------------------------------------

http://www.guitartabcreator.com
Guitar Tab Creator is intended to store guitar tab created through the tool. It currently does not support in-line text editing. Any text you place in here will be lost. If you need to comment on your tab, please use the "Tab Notes" section located below.