Sound will begin in 5 seconds

Circles of Fifths Excercise

Chords
01234567891011121314151617181920212223
E
B
G
D
A
E
B
0 1 2 3 4 5 6 7 8 9 10 11 12 13 14 15 16 17 18 19 20 21 22 23
(/) Slide Up  (\) Slide Down  (h) Hammer On  (p) Pull Off  (b) Bend (r) Release (v) Vibrato

Stave 1:

E|--------------|--------------|--------------|--------------|--------------|--------------|--
B|--------------|--------------|--------------|--------------|--------------|--------------|--
G|--------------|--------------|--------2-----|--------------|--------------|--------------|--
D|-----2--5--2--|--------------|-----4-----4--|--------2-----|-----6--9--6--|--------------|--
A|--3-----------|-----2--5--2--|--5-----------|-----4-----4--|--7-----------|-----6--9--6--|--
E|--------------|--3-----------|--------------|--5-----------|--------------|--7-----------|--

Stave 2:

E|--------------|--------------|------------------|------------------|------------------|--
B|--------------|--------------|------------------|------------------|------------------|--
G|--------6-----|--------------|------------------|------------------|----------10------|--
D|-----8-----8--|--------6-----|------10--13--10--|------------------|------12------12--|--
A|--9-----------|-----8-----8--|--11--------------|------10--13--10--|--13--------------|--
E|--------------|--9-----------|------------------|--11--------------|------------------|--

Stave 3:

E|------------------|------------------|--------------------------------------------------|--
B|------------------|------------------|--------------------------------------------------|--
G|------------------|------------------|----------------------------------------------16--|--
D|----------10------|------14--17--14--|----------------------15------15--17--15--17------|--
A|------12------12--|--15--------------|------14--17--14--17------17----------------------|--
E|--13--------------|------------------|--15----------------------------------------------|--

Stave 4:

E|------------|------|------
B|--------17--|--13--|--8---
G|--------16--|--12--|--9---
D|--------17--|--14--|--10--
A|------------|------|------
E|------------|------|------

http://www.guitartabcreator.com
Guitar Tab Creator is intended to store guitar tab created through the tool. It currently does not support in-line text editing. Any text you place in here will be lost. If you need to comment on your tab, please use the "Tab Notes" section located below.