Chance Interaction

Chords

01234567891011121314151617181920212223
E
B
G
D
A
E
B
0 1 2 3 4 5 6 7 8 9 10 11 12 13 14 15 16 17 18 19 20 21 22 23
(/) Slide Up  (\) Slide Down  (h) Hammer On  (p) Pull Off  (b) Bend (r) Release (v) Vibrato

Intro 1 (Gtr 1)

E|--------------------------------------------------------------------------------------------------------------------------------------------------------------------------------------------
B|-----5-----5-----5-----5-----5-----5-----5--------5-----5-----5-----5-----5-----5-----5--------5-----5-----5-----5-----5-----5-----5--------5-----5-----5-----5-----5-----5-----5-----------
G|--------6-----6-----6-----6-----6-----6-----6--------6-----6-----6-----6-----6-----6-----6--------6-----6-----6-----6-----6-----6-----6--------6-----6-----6-----6-----6-----6-----6--------
D|--------------------------------------------------------------------------------------------------------------------------------------------------------------------------------------------
A|--4--------------------------------------------4--------------------------------------------4--------------------------------------------4--------------------------------------------------
E|--5--------------------------------------------5--------------------------------------------5--------------------------------------------5--------------------------------------------------

Intro 1 (Gtr 1)

E|-----------------------------------------------------------------------------------------------------------------------------------------------------------------------------
B|-----5-----5-----5-----5-----5-----5-----5--------5-----5-----5-----5-----5-----5-----5--------5-----5-----5-----5-----5-----5-----5--------5-----5-----5-----5-----5--------
G|--------6-----6-----6-----6-----6-----6-----6--------6-----6-----6-----6-----6-----6-----6--------6-----6-----6-----6-----6-----6-----6--------6-----6-----6-----6-----------
D|-----------------------------------------------------------------------------------------------------------------------------------------------------------------------------
A|--4--------------------------------------------4--------------------------------------------4--------------------------------------------4-----------------------------------
E|--5--------------------------------------------5--------------------------------------------5--------------------------------------------5-----------------------------------

Intro 2 (Gtr 1)

E|-----5h7p5-----7\9-----------------------------------9--7h9p7----------------12/9--9---------------------------------9------7\9------
B|--5---------7-------9\10-----------------------------x---------10-----12\14--------10--------------------------9-----10-----9-10-----
G|--6--------------------------6----------7\9-----7/6--x-----------------------------9------11-----13-----14---------------------------
D|-----------------------------7--6--7h9-------9-------7-----------------------------11--------------------------9---------------------
A|--4--------------------------------------------------5-----------------------------9------9------11-----12-----7---------------------
E|--5--------------------------7-----------------------x-------------------------------------------------------------------------------

Intro 2 (Gtr 1)

E|-----5h7p5-----7\9----------------------------------------9-----7h9p7----------------12/9--9---------------------------------9------7\9------
B|--5---------7-------9\10----------------9\10--9--7--------x------------10-----12\14--------10--------------------------9-----10-----9-10-----
G|--6--------------------------6--6--7h9--------------9-----x--------------------------------9------11-----13-----14---------------------------
D|-----------------------------7----------------------------7--------------------------------11--------------------------9---------------------
A|--4-------------------------------------------------------5--------------------------------9------9------11-----12-----7---------------------
E|--5--------------------------7----------------------------x----------------------------------------------------------------------------------

Intro 2 (Gtr 1)

E|-----5h7p5-----7\9-----------------------------------9--7h9p7----------------12/9--9---------------------------------9------7\9------
B|--5---------7-------9\10-----------------------------x---------10-----12\14--------10--------------------------9-----10-----9-10-----
G|--6--------------------------6----------7\9-----7/6--x-----------------------------9------11-----13-----14---------------------------
D|-----------------------------7--6--7h9-------9-------7-----------------------------11--------------------------9---------------------
A|--4--------------------------------------------------5-----------------------------9------9------11-----12-----7---------------------
E|--5--------------------------7-----------------------x-------------------------------------------------------------------------------

Intro 2 (Gtr 1)

E|-----5h7p5-----7\9----------------------------------------9-----7h9p7----------------12/9--9---------------------------------9------7\9---
B|--5---------7-------9\10----------------9\10--9--7--------x------------10-----12\14--------10--------------------------9-----10-----9-10--
G|--6--------------------------6--6--7h9--------------9-----x--------------------------------9------11-----13-----14------------------------
D|-----------------------------7----------------------------7--------------------------------11--------------------------9------------------
A|--4-------------------------------------------------------5--------------------------------9------9------11-----12-----7------------------
E|--5--------------------------7----------------------------x-------------------------------------------------------------------------------

Verse (Gtr 1)

E|--------------------------------------------------------
B|--5--5--5--5-----2--2--2--2-----------------------------
G|--6--6--6--6-----2--2--2--2-----6--6--6--6--6--6--5--4--
D|-----------------2--2--2--2-----7--7--7--7--7--7--6--5--
A|--4--4--4--4--------------------------------------------
E|--5--5--5--5-----2--2--2--2-----7--7--7--7--7--7--6--5--

Verse (Gtr 2) Starts (2:05) and (4:34)

E|-----------------------------------------------------------------------------------------------------------------------------------------------------------------------------------
B|-----------7--------------------7--------------------------------------------------------------------------------------------------------------------------------------------------
G|-----6--9-----9--6--------6--9-----9--6--------------4--6--4--------------4--6--4--------------------6--------------------6--7--6--------------------6-----------------------6-----
D|--7-----------------7--7-----------------7--6--4--7-----------7--4--4--7-----------7--4--------4--7-----7--4--------4--7-----------7--4-----6--7--9-----9--7--6-----6--7--9-----6--
A|-----------------------------------------------------------------------------------------7--5-----------------5--5-----------------------7-----------------------7-----------------
E|-----------------------------------------------------------------------------------------------------------------------------------------------------------------------------------

Pre-Chorus (Gtr 1)

E|--9-----9-----9------x--
B|--x-----x-----10-----9--
G|--x-----x-----9------x--
D|--7-----7-----11-----9--
A|--5-----5-----9------7--
E|--x-----x-----x------x--

Chorus (Gtr 1)

E|--9--9--x--x--x--x--9--9--9--9--9--9-----9---9---x--x--x--9------x--x--x--x--------------
B|--x--x--x--x--x--x--x--x--x--x--x--x-----10--10--x--x--x--10-----9--9--9--9--------------
G|--x--x--x--x--x--x--x--x--x--x--x--x-----9---9---x--x--x--9------x--x--x--x--------------
D|--7--7--x--x--x--x--7--7--7--7--7--7-----11--11--x--x--x--11-----9--9--9--9--------------
A|--5--5--x--x--x--x--5--5--5--5--5--5-----9---9---x--x--x--9------7--7--7--7--------------
E|--x--x--x--x--x--x--x--x--x--x--x--x-----x---x---x--x--x--x------x--x--x--x--------------

Chorus (Gtr 2)

E|--7\9--7----------------------7--9\12--10--10--9-----------------12----------7\9--7----------------------7--9\12--10--10\12--12\16--12---------14------_-----------
B|----------10--9--7--7--9--10----------------------12--12--12\14------10--10----------10--9--7--7--9--10---------------------------------12\14------10--10-----------
G|-------------------------------------------------------------------------------------------------------------------------------------------------------_-----------
D|-------------------------------------------------------------------------------------------------------------------------------------------------------_-----------
A|-------------------------------------------------------------------------------------------------------------------------------------------------------_-----------
E|-------------------------------------------------------------------------------------------------------------------------------------------------------_-----------

Chorus (Gtr 2)

E|--7\9--7----------------------7--9\12--10--10--9-----------------12----------7\9--7----------------------7--9\12--10--10\12--12\16--12---------14------9/5--9/5--
B|----------10--9--7--7--9--10----------------------12--12--12\14------10--10----------10--9--7--7--9--10---------------------------------12\14------10------------
G|-----------------------------------------------------------------------------------------------------------------------------------------------------------------
D|-----------------------------------------------------------------------------------------------------------------------------------------------------------------
A|-----------------------------------------------------------------------------------------------------------------------------------------------------------------
E|-----------------------------------------------------------------------------------------------------------------------------------------------------------------

Outro (Gtr 1)

E|--9---------------
B|--------10-----9--
G|------------------
D|--7-----11-----9--
A|--5-----9------7--
E|------------------

Outro (Gtr 2)

E|--9----------------------------------------9--------------------12p9h12p9h12p9--10p9--
B|--10p9h10p9h10p9h10p9h10p9h10p9h10p9h10p9--12p9h12p9h12p9h12p9--9---------------9-----
G|--9----------------------------------------9--------------------9---------------9-----
D|--------------------------------------------------------------------------------------
A|--------------------------------------------------------------------------------------
E|--------------------------------------------------------------------------------------

Outro (Gtr 3) (Tremolo Picking)

E|--_------------------------------------------------------------------------------------------------------------------------------------------
B|--15--15--15--15--15--15--15--15-----14--14--14--14--14--14--14--14---------------------------------------------------------------------------
G|--_--------------------------------------------------------------------16--16--16--16--16--16--16--16-----14--14--14--14--14--14--14--14-----
D|--_------------------------------------------------------------------------------------------------------------------------------------------
A|--_------------------------------------------------------------------------------------------------------------------------------------------
E|--_------------------------------------------------------------------------------------------------------------------------------------------

Outro (Gtr 3) (Tremolo Picking)

E|--_------------------------------------------------------------------------------------------------------------------------------------------
B|--15--15--15--15--15--15--15--15-----14--14--14--14--14--14--14--14---------------------------------------------------------------------------
G|--_--------------------------------------------------------------------16--16--16--16--16--16--16--16-----14--14--14--14--14--14--14--14-----
D|--_------------------------------------------------------------------------------------------------------------------------------------------
A|--_------------------------------------------------------------------------------------------------------------------------------------------
E|--_------------------------------------------------------------------------------------------------------------------------------------------

Outro (Gtr 3) (Tremolo Picking)

E|--_------------------------------------------------------------------------------------------------------------------------------------------
B|--15--15--15--15--15--15--15--15-----14--14--14--14--14--14--14--14---------------------------------------------------------------------------
G|--_--------------------------------------------------------------------16--16--16--16--16--16--16--16-----14--14--14--14--14--14--14--14-----
D|--_------------------------------------------------------------------------------------------------------------------------------------------
A|--_------------------------------------------------------------------------------------------------------------------------------------------
E|--_------------------------------------------------------------------------------------------------------------------------------------------

Outro (Gtr 3) (Tremolo Picking)

E|--_------------------------------------------------------------------------------------------------------------------------------------------
B|--15--15--15--15--15--15--15--15-----14--14--14--14--14--14--14--14-----17--17--17--17--17--17--17--17----------------------------------------
G|--_-------------------------------------------------------------------------------------------------------14--14--14--14--14--14--14--14-----
D|--_------------------------------------------------------------------------------------------------------------------------------------------
A|--_------------------------------------------------------------------------------------------------------------------------------------------
E|--_------------------------------------------------------------------------------------------------------------------------------------------

							http://www.guitartabcreator.com
Instruments
{"strings":[[[".",".",".",".",".",".",".",".",".",".",".",".",".",".",".",".",".",".",".",".",".",".",".",".",".",".",".",".",".",".",".",".",".",".",".",".",".",".",".",".",".",".",".",".",".",".",".",".",".",".",".",".",".",".",".",".",".",".",".",".",".","."],[".",5,".",5,".",5,".",5,".",5,".",5,".",5,".",".",5,".",5,".",5,".",5,".",5,".",5,".",5,".",".",5,".",5,".",5,".",5,".",5,".",5,".",5,".",".",5,".",5,".",5,".",5,".",5,".",5,".",5,".",".","."],[".",".",6,".",6,".",6,".",6,".",6,".",6,".",6,".",".",6,".",6,".",6,".",6,".",6,".",6,".",6,".",".",6,".",6,".",6,".",6,".",6,".",6,".",6,".",".",6,".",6,".",6,".",6,".",6,".",6,".",6,".","."],[".",".",".",".",".",".",".",".",".",".",".",".",".",".",".",".",".",".",".",".",".",".",".",".",".",".",".",".",".",".",".",".",".",".",".",".",".",".",".",".",".",".",".",".",".",".",".",".",".",".",".",".",".",".",".",".",".",".",".",".",".","."],[4,".",".",".",".",".",".",".",".",".",".",".",".",".",".",4,".",".",".",".",".",".",".",".",".",".",".",".",".",".",4,".",".",".",".",".",".",".",".",".",".",".",".",".",".",4,".",".",".",".",".",".",".",".",".",".",".",".",".",".",".","."],[5,".",".",".",".",".",".",".",".",".",".",".",".",".",".",5,".",".",".",".",".",".",".",".",".",".",".",".",".",".",5,".",".",".",".",".",".",".",".",".",".",".",".",".",".",5,".",".",".",".",".",".",".",".",".",".",".",".",".",".",".","."]],[[".",".",".",".",".",".",".",".",".",".",".",".",".",".",".",".",".",".",".",".",".",".",".",".",".",".",".",".",".",".",".",".",".",".",".",".",".",".",".",".",".",".",".",".",".",".",".",".",".",".",".",".",".",".",".",".","."],[".",5,".",5,".",5,".",5,".",5,".",5,".",5,".",".",5,".",5,".",5,".",5,".",5,".",5,".",5,".",".",5,".",5,".",5,".",5,".",5,".",5,".",5,".",".",5,".",5,".",5,".",5,".",5,".","."],[".",".",6,".",6,".",6,".",6,".",6,".",6,".",6,".",".",6,".",6,".",6,".",6,".",6,".",6,".",6,".",".",6,".",6,".",6,".",6,".",6,".",6,".",6,".",".",6,".",6,".",6,".",6,".",".","."],[".",".",".",".",".",".",".",".",".",".",".",".",".",".",".",".",".",".",".",".",".",".",".",".",".",".",".",".",".",".",".",".",".",".",".",".",".",".",".",".",".",".",".",".",".",".",".",".",".",".",".",".",".",".",".",".","."],[4,".",".",".",".",".",".",".",".",".",".",".",".",".",".",4,".",".",".",".",".",".",".",".",".",".",".",".",".",".",4,".",".",".",".",".",".",".",".",".",".",".",".",".",".",4,".",".",".",".",".",".",".",".",".",".","."],[5,".",".",".",".",".",".",".",".",".",".",".",".",".",".",5,".",".",".",".",".",".",".",".",".",".",".",".",".",".",5,".",".",".",".",".",".",".",".",".",".",".",".",".",".",5,".",".",".",".",".",".",".",".",".",".","."]],[[".",5,"h",7,"p",5,".",7,"\\",9,".",".",".",".",".",".",".",".",".",".",".",".",".",".",".",".",9,7,"h",9,"p",7,".",".",".",".",".",12,"/",9,9,".",".",".",".",".",".",".",".",".",9,".",7,"\\",9,"."],[5,".",".",".",".",".",7,".",".",".",9,"\\",10,".",".",".",".",".",".",".",".",".",".",".",".",".","x",".",".",".",".",".",10,".",12,"\\",14,".",".",".",10,".",".",".",".",".",".",".",9,".",10,".",9,".",10,"."],[6,".",".",".",".",".",".",".",".",".",".",".",".",".",6,".",".",".",".",7,"\\",9,".",7,"/",6,"x",".",".",".",".",".",".",".",".",".",".",".",".",".",9,".",11,".",13,".",14,".",".",".",".",".",".",".",".","."],[".",".",".",".",".",".",".",".",".",".",".",".",".",".",7,6,7,"h",9,".",".",".",9,".",".",".",7,".",".",".",".",".",".",".",".",".",".",".",".",".",11,".",".",".",".",".",".",".",9,".",".",".",".",".",".","."],[4,".",".",".",".",".",".",".",".",".",".",".",".",".",".",".",".",".",".",".",".",".",".",".",".",".",5,".",".",".",".",".",".",".",".",".",".",".",".",".",9,".",9,".",11,".",12,".",7,".",".",".",".",".",".","."],[5,".",".",".",".",".",".",".",".",".",".",".",".",".",7,".",".",".",".",".",".",".",".",".",".",".","x",".",".",".",".",".",".",".",".",".",".",".",".",".",".",".",".",".",".",".",".",".",".",".",".",".",".",".",".","."]],[[".",5,"h",7,"p",5,".",7,"\\",9,".",".",".",".",".",".",".",".",".",".",".",".",".",".",".",".",9,".",7,"h",9,"p",7,".",".",".",".",".",12,"/",9,9,".",".",".",".",".",".",".",".",".",9,".",7,"\\",9,"."],[5,".",".",".",".",".",7,".",".",".",9,"\\",10,".",".",".",".",".",".",9,"\\",10,9,7,".",".","x",".",".",".",".",".",".",10,".",12,"\\",14,".",".",".",10,".",".",".",".",".",".",".",9,".",10,".",9,".",10,"."],[6,".",".",".",".",".",".",".",".",".",".",".",".",".",6,6,7,"h",9,".",".",".",".",".",9,".","x",".",".",".",".",".",".",".",".",".",".",".",".",".",".",9,".",11,".",13,".",14,".",".",".",".",".",".",".",".","."],[".",".",".",".",".",".",".",".",".",".",".",".",".",".",7,".",".",".",".",".",".",".",".",".",".",".",7,".",".",".",".",".",".",".",".",".",".",".",".",".",".",11,".",".",".",".",".",".",".",9,".",".",".",".",".",".","."],[4,".",".",".",".",".",".",".",".",".",".",".",".",".",".",".",".",".",".",".",".",".",".",".",".",".",5,".",".",".",".",".",".",".",".",".",".",".",".",".",".",9,".",9,".",11,".",12,".",7,".",".",".",".",".",".","."],[5,".",".",".",".",".",".",".",".",".",".",".",".",".",7,".",".",".",".",".",".",".",".",".",".",".","x",".",".",".",".",".",".",".",".",".",".",".",".",".",".",".",".",".",".",".",".",".",".",".",".",".",".",".",".",".","."]],[[".",5,"h",7,"p",5,".",7,"\\",9,".",".",".",".",".",".",".",".",".",".",".",".",".",".",".",".",9,7,"h",9,"p",7,".",".",".",".",".",12,"/",9,9,".",".",".",".",".",".",".",".",".",9,".",7,"\\",9,"."],[5,".",".",".",".",".",7,".",".",".",9,"\\",10,".",".",".",".",".",".",".",".",".",".",".",".",".","x",".",".",".",".",".",10,".",12,"\\",14,".",".",".",10,".",".",".",".",".",".",".",9,".",10,".",9,".",10,"."],[6,".",".",".",".",".",".",".",".",".",".",".",".",".",6,".",".",".",".",7,"\\",9,".",7,"/",6,"x",".",".",".",".",".",".",".",".",".",".",".",".",".",9,".",11,".",13,".",14,".",".",".",".",".",".",".",".","."],[".",".",".",".",".",".",".",".",".",".",".",".",".",".",7,6,7,"h",9,".",".",".",9,".",".",".",7,".",".",".",".",".",".",".",".",".",".",".",".",".",11,".",".",".",".",".",".",".",9,".",".",".",".",".",".","."],[4,".",".",".",".",".",".",".",".",".",".",".",".",".",".",".",".",".",".",".",".",".",".",".",".",".",5,".",".",".",".",".",".",".",".",".",".",".",".",".",9,".",9,".",11,".",12,".",7,".",".",".",".",".",".","."],[5,".",".",".",".",".",".",".",".",".",".",".",".",".",7,".",".",".",".",".",".",".",".",".",".",".","x",".",".",".",".",".",".",".",".",".",".",".",".",".",".",".",".",".",".",".",".",".",".",".",".",".",".",".",".","."]],[[".",5,"h",7,"p",5,".",7,"\\",9,".",".",".",".",".",".",".",".",".",".",".",".",".",".",".",".",9,".",7,"h",9,"p",7,".",".",".",".",".",12,"/",9,9,".",".",".",".",".",".",".",".",".",9,".",7,"\\",9],[5,".",".",".",".",".",7,".",".",".",9,"\\",10,".",".",".",".",".",".",9,"\\",10,9,7,".",".","x",".",".",".",".",".",".",10,".",12,"\\",14,".",".",".",10,".",".",".",".",".",".",".",9,".",10,".",9,".",10],[6,".",".",".",".",".",".",".",".",".",".",".",".",".",6,6,7,"h",9,".",".",".",".",".",9,".","x",".",".",".",".",".",".",".",".",".",".",".",".",".",".",9,".",11,".",13,".",14,".",".",".",".",".",".",".","."],[".",".",".",".",".",".",".",".",".",".",".",".",".",".",7,".",".",".",".",".",".",".",".",".",".",".",7,".",".",".",".",".",".",".",".",".",".",".",".",".",".",11,".",".",".",".",".",".",".",9,".",".",".",".",".","."],[4,".",".",".",".",".",".",".",".",".",".",".",".",".",".",".",".",".",".",".",".",".",".",".",".",".",5,".",".",".",".",".",".",".",".",".",".",".",".",".",".",9,".",9,".",11,".",12,".",7,".",".",".",".",".","."],[5,".",".",".",".",".",".",".",".",".",".",".",".",".",7,".",".",".",".",".",".",".",".",".",".",".","x",".",".",".",".",".",".",".",".",".",".",".",".",".",".",".",".",".",".",".",".",".",".",".",".",".",".",".",".","."]],[[".",".",".",".",".",".",".",".",".",".",".",".",".",".",".",".",".","."],[5,5,5,5,".",2,2,2,2,".",".",".",".",".",".",".",".","."],[6,6,6,6,".",2,2,2,2,".",6,6,6,6,6,6,5,4],[".",".",".",".",".",2,2,2,2,".",7,7,7,7,7,7,6,5],[4,4,4,4,".",".",".",".",".",".",".",".",".",".",".",".",".","."],[5,5,5,5,".",2,2,2,2,".",7,7,7,7,7,7,6,5]],[[".",".",".",".",".",".",".",".",".",".",".",".",".",".",".",".",".",".",".",".",".",".",".",".",".",".",".",".",".",".",".",".",".",".",".",".",".",".",".",".",".",".",".",".",".",".",".",".",".",".",".",".",".",".",".",".",".",".","."],[".",".",".",7,".",".",".",".",".",".",7,".",".",".",".",".",".",".",".",".",".",".",".",".",".",".",".",".",".",".",".",".",".",".",".",".",".",".",".",".",".",".",".",".",".",".",".",".",".",".",".",".",".",".",".",".",".",".","."],[".",6,9,".",9,6,".",".",6,9,".",9,6,".",".",".",".",4,6,4,".",".",".",".",4,6,4,".",".",".",".",".",".",6,".",".",".",".",".",".",6,7,6,".",".",".",".",".",".",6,".",".",".",".",".",".",".",6,"."],[7,".",".",".",".",".",7,7,".",".",".",".",".",7,6,4,7,".",".",".",7,4,4,7,".",".",".",7,4,".",".",4,7,".",7,4,".",".",4,7,".",".",".",7,4,".",6,7,9,".",9,7,6,".",6,7,9,".",6],[".",".",".",".",".",".",".",".",".",".",".",".",".",".",".",".",".",".",".",".",".",".",".",".",".",".",".",".",".",7,5,".",".",".",".",".",5,5,".",".",".",".",".",".",".",7,".",".",".",".",".",".",".",7,".",".",".",".","."],[".",".",".",".",".",".",".",".",".",".",".",".",".",".",".",".",".",".",".",".",".",".",".",".",".",".",".",".",".",".",".",".",".",".",".",".",".",".",".",".",".",".",".",".",".",".",".",".",".",".",".",".",".",".",".",".",".",".","."]],[[9,".",9,".",9,".","x"],["x",".","x",".",10,".",9],["x",".","x",".",9,".","x"],[7,".",7,".",11,".",9],[5,".",5,".",9,".",7],["x",".","x",".","x",".","x"]],[[9,9,"x","x","x","x",9,9,9,9,9,9,".",9,9,"x","x","x",9,".","x","x","x","x",".",".",".","."],["x","x","x","x","x","x","x","x","x","x","x","x",".",10,10,"x","x","x",10,".",9,9,9,9,".",".",".","."],["x","x","x","x","x","x","x","x","x","x","x","x",".",9,9,"x","x","x",9,".","x","x","x","x",".",".",".","."],[7,7,"x","x","x","x",7,7,7,7,7,7,".",11,11,"x","x","x",11,".",9,9,9,9,".",".",".","."],[5,5,"x","x","x","x",5,5,5,5,5,5,".",9,9,"x","x","x",9,".",7,7,7,7,".",".",".","."],["x","x","x","x","x","x","x","x","x","x","x","x",".","x","x","x","x","x","x",".","x","x","x","x",".",".",".","."]],[[7,"\\",9,7,".",".",".",".",".",".",7,9,"\\",12,10,10,9,".",".",".",".",".",12,".",".",7,"\\",9,7,".",".",".",".",".",".",7,9,"\\",12,10,10,"\\",12,12,"\\",16,12,".",".",".",14,".","_",".",".","."],[".",".",".",".",10,9,7,7,9,10,".",".",".",".",".",".",".",12,12,12,"\\",14,".",10,10,".",".",".",".",10,9,7,7,9,10,".",".",".",".",".",".",".",".",".",".",".",".",12,"\\",14,".",10,10,".",".","."],[".",".",".",".",".",".",".",".",".",".",".",".",".",".",".",".",".",".",".",".",".",".",".",".",".",".",".",".",".",".",".",".",".",".",".",".",".",".",".",".",".",".",".",".",".",".",".",".",".",".",".",".","_",".",".","."],[".",".",".",".",".",".",".",".",".",".",".",".",".",".",".",".",".",".",".",".",".",".",".",".",".",".",".",".",".",".",".",".",".",".",".",".",".",".",".",".",".",".",".",".",".",".",".",".",".",".",".",".","_",".",".","."],[".",".",".",".",".",".",".",".",".",".",".",".",".",".",".",".",".",".",".",".",".",".",".",".",".",".",".",".",".",".",".",".",".",".",".",".",".",".",".",".",".",".",".",".",".",".",".",".",".",".",".",".","_",".",".","."],[".",".",".",".",".",".",".",".",".",".",".",".",".",".",".",".",".",".",".",".",".",".",".",".",".",".",".",".",".",".",".",".",".",".",".",".",".",".",".",".",".",".",".",".",".",".",".",".",".",".",".",".","_",".",".","."]],[[7,"\\",9,7,".",".",".",".",".",".",7,9,"\\",12,10,10,9,".",".",".",".",".",12,".",".",7,"\\",9,7,".",".",".",".",".",".",7,9,"\\",12,10,10,"\\",12,12,"\\",16,12,".",".",".",14,".",9,"/",5,9,"/",5],[".",".",".",".",10,9,7,7,9,10,".",".",".",".",".",".",".",12,12,12,"\\",14,".",10,10,".",".",".",".",10,9,7,7,9,10,".",".",".",".",".",".",".",".",".",".",".",".",12,"\\",14,".",10,".",".",".",".",".","."],[".",".",".",".",".",".",".",".",".",".",".",".",".",".",".",".",".",".",".",".",".",".",".",".",".",".",".",".",".",".",".",".",".",".",".",".",".",".",".",".",".",".",".",".",".",".",".",".",".",".",".",".",".",".",".",".",".","."],[".",".",".",".",".",".",".",".",".",".",".",".",".",".",".",".",".",".",".",".",".",".",".",".",".",".",".",".",".",".",".",".",".",".",".",".",".",".",".",".",".",".",".",".",".",".",".",".",".",".",".",".",".",".",".",".",".","."],[".",".",".",".",".",".",".",".",".",".",".",".",".",".",".",".",".",".",".",".",".",".",".",".",".",".",".",".",".",".",".",".",".",".",".",".",".",".",".",".",".",".",".",".",".",".",".",".",".",".",".",".",".",".",".",".",".","."],[".",".",".",".",".",".",".",".",".",".",".",".",".",".",".",".",".",".",".",".",".",".",".",".",".",".",".",".",".",".",".",".",".",".",".",".",".",".",".",".",".",".",".",".",".",".",".",".",".",".",".",".",".",".",".",".",".","."]],[[9,".",".",".","."],[".",".",10,".",9],[".",".",".",".","."],[7,".",11,".",9],[5,".",9,".",7],[".",".",".",".","."]],[[9,".",".",".",".",".",".",".",".",".",".",".",".",".",".",".",".",".",".",".",".",".",".",".",".",".",".",".",".",".",".",9,".",".",".",".",".",".",".",".",".",".",".",".",".",".",12,"p",9,"h",12,"p",9,"h",12,"p",9,10,"p",9],[10,"p",9,"h",10,"p",9,"h",10,"p",9,"h",10,"p",9,"h",10,"p",9,"h",10,"p",9,"h",10,"p",9,"h",10,"p",9,12,"p",9,"h",12,"p",9,"h",12,"p",9,"h",12,"p",9,9,".",".",".",".",".",".",".",".",".",".",9,".","."],[9,".",".",".",".",".",".",".",".",".",".",".",".",".",".",".",".",".",".",".",".",".",".",".",".",".",".",".",".",".",".",9,".",".",".",".",".",".",".",".",".",".",".",".",".",".",9,".",".",".",".",".",".",".",".",".",".",9,".","."],[".",".",".",".",".",".",".",".",".",".",".",".",".",".",".",".",".",".",".",".",".",".",".",".",".",".",".",".",".",".",".",".",".",".",".",".",".",".",".",".",".",".",".",".",".",".",".",".",".",".",".",".",".",".",".",".",".",".",".","."],[".",".",".",".",".",".",".",".",".",".",".",".",".",".",".",".",".",".",".",".",".",".",".",".",".",".",".",".",".",".",".",".",".",".",".",".",".",".",".",".",".",".",".",".",".",".",".",".",".",".",".",".",".",".",".",".",".",".",".","."],[".",".",".",".",".",".",".",".",".",".",".",".",".",".",".",".",".",".",".",".",".",".",".",".",".",".",".",".",".",".",".",".",".",".",".",".",".",".",".",".",".",".",".",".",".",".",".",".",".",".",".",".",".",".",".",".",".",".",".","."]],[["_",".",".",".",".",".",".",".",".",".",".",".",".",".",".",".",".",".",".",".",".",".",".",".",".",".",".",".",".",".",".",".",".",".",".","."],[15,15,15,15,15,15,15,15,".",14,14,14,14,14,14,14,14,".",".",".",".",".",".",".",".",".",".",".",".",".",".",".",".",".",".","."],["_",".",".",".",".",".",".",".",".",".",".",".",".",".",".",".",".",".",16,16,16,16,16,16,16,16,".",14,14,14,14,14,14,14,14,"."],["_",".",".",".",".",".",".",".",".",".",".",".",".",".",".",".",".",".",".",".",".",".",".",".",".",".",".",".",".",".",".",".",".",".",".","."],["_",".",".",".",".",".",".",".",".",".",".",".",".",".",".",".",".",".",".",".",".",".",".",".",".",".",".",".",".",".",".",".",".",".",".","."],["_",".",".",".",".",".",".",".",".",".",".",".",".",".",".",".",".",".",".",".",".",".",".",".",".",".",".",".",".",".",".",".",".",".",".","."]],[["_",".",".",".",".",".",".",".",".",".",".",".",".",".",".",".",".",".",".",".",".",".",".",".",".",".",".",".",".",".",".",".",".",".",".","."],[15,15,15,15,15,15,15,15,".",14,14,14,14,14,14,14,14,".",".",".",".",".",".",".",".",".",".",".",".",".",".",".",".",".",".","."],["_",".",".",".",".",".",".",".",".",".",".",".",".",".",".",".",".",".",16,16,16,16,16,16,16,16,".",14,14,14,14,14,14,14,14,"."],["_",".",".",".",".",".",".",".",".",".",".",".",".",".",".",".",".",".",".",".",".",".",".",".",".",".",".",".",".",".",".",".",".",".",".","."],["_",".",".",".",".",".",".",".",".",".",".",".",".",".",".",".",".",".",".",".",".",".",".",".",".",".",".",".",".",".",".",".",".",".",".","."],["_",".",".",".",".",".",".",".",".",".",".",".",".",".",".",".",".",".",".",".",".",".",".",".",".",".",".",".",".",".",".",".",".",".",".","."]],[["_",".",".",".",".",".",".",".",".",".",".",".",".",".",".",".",".",".",".",".",".",".",".",".",".",".",".",".",".",".",".",".",".",".",".","."],[15,15,15,15,15,15,15,15,".",14,14,14,14,14,14,14,14,".",".",".",".",".",".",".",".",".",".",".",".",".",".",".",".",".",".","."],["_",".",".",".",".",".",".",".",".",".",".",".",".",".",".",".",".",".",16,16,16,16,16,16,16,16,".",14,14,14,14,14,14,14,14,"."],["_",".",".",".",".",".",".",".",".",".",".",".",".",".",".",".",".",".",".",".",".",".",".",".",".",".",".",".",".",".",".",".",".",".",".","."],["_",".",".",".",".",".",".",".",".",".",".",".",".",".",".",".",".",".",".",".",".",".",".",".",".",".",".",".",".",".",".",".",".",".",".","."],["_",".",".",".",".",".",".",".",".",".",".",".",".",".",".",".",".",".",".",".",".",".",".",".",".",".",".",".",".",".",".",".",".",".",".","."]],[["_",".",".",".",".",".",".",".",".",".",".",".",".",".",".",".",".",".",".",".",".",".",".",".",".",".",".",".",".",".",".",".",".",".",".","."],[15,15,15,15,15,15,15,15,".",14,14,14,14,14,14,14,14,".",17,17,17,17,17,17,17,17,".",".",".",".",".",".",".",".",".","."],["_",".",".",".",".",".",".",".",".",".",".",".",".",".",".",".",".",".",".",".",".",".",".",".",".",".",".",14,14,14,14,14,14,14,14,"."],["_",".",".",".",".",".",".",".",".",".",".",".",".",".",".",".",".",".",".",".",".",".",".",".",".",".",".",".",".",".",".",".",".",".",".","."],["_",".",".",".",".",".",".",".",".",".",".",".",".",".",".",".",".",".",".",".",".",".",".",".",".",".",".",".",".",".",".",".",".",".",".","."],["_",".",".",".",".",".",".",".",".",".",".",".",".",".",".",".",".",".",".",".",".",".",".",".",".",".",".",".",".",".",".",".",".",".",".","."]]],"numberofstrings":6,"notes":["E","B","G","D","A","E","B"],"capo":0,"stringnotes":["E4","B3","G3","D3","A2","E2"],"comments":["Intro 1 (Gtr 1)","Intro 1 (Gtr 1)","Intro 2 (Gtr 1)","Intro 2 (Gtr 1)","Intro 2 (Gtr 1)","Intro 2 (Gtr 1)","Verse (Gtr 1)","Verse (Gtr 2) Starts (2:05) and (4:34)","Pre-Chorus (Gtr 1)","Chorus (Gtr 1)","Chorus (Gtr 2)","Chorus (Gtr 2)","Outro (Gtr 1)","Outro (Gtr 2)","Outro (Gtr 3) (Tremolo Picking)","Outro (Gtr 3) (Tremolo Picking)","Outro (Gtr 3) (Tremolo Picking)","Outro (Gtr 3) (Tremolo Picking)"],"timing":[[null,null,null,null,null,null,null,null,null,null,null,null,null,null,null,null],[],[null,null,null,null,null,null,null,null,null,null,null,null,null,null,null,null,null,null,null,null,null,null,null,null,null,null,null,null,null,null,null,null,null,null,null,null,null,null,null,null,null,null,null,null,null,null,null,null,null,null,null,null,null,null,null,null],[null,null,null,null,null,null,null,null,null,null,null,null,null,null,null,null,null,null,null,null,null,null,null,null,null,null,null,null],[],[],[null,"W","W","W",null,null,null,null,null,null,"W","W","W","W","W","W","W","W","W"],[null,"W","W","W","W","W","W","W","W","W","W","W","W","W","W","W","W","W","W","W","W","W","W","W","W","W","W","W","W","W","W","W","W","W","W","W","W","W","W","W","W","W","W","W","W","W","W","W","W","W","W","W","W","W","W","W","W","W","W","W"],[null,"W",null,"W",null,"W",null,"W"],[null,"W",null,null,null,null,null,null,null,null,null,null,null,null,null,null,null,null,null,"W",null,"W"],[null,"W",null,"W","W","W","W","W","W","W","W","W","W",null,"W","W","W","W","W","W","W",null,"W","W","W","W","W",null,"W","W","W","W","W","W","W","W","W","W",null,"W","W","W",null,"W","W",null,"W","W","W",null,"W","W","W","W"],[null,null,null,null,null,null,null,null,null,null,null,null,null,null,null,null,null,null,null,null,null,null,null,null,null,null,null,null,null,null,null,null,null,null,null,null,null,null,null,null,null,null,null,null,null,null,null,null,null,null,null,null,null,null,null,"W","W",null,"W"],[null,"W",null,"W",null,"W",null,null,null,null,null,null,null,null,null,null,null,null,null,null,null,null,null,null,null,null,null,null,null,null,null,null,null,null,null,null,null,null,null,null,null,null,null,null,null,null,null,null,null,null,null,null,null,null,null,null,null,null,"W"],[null,"W",null,"W",null,"W",null,"W",null,"W",null,"W",null,"W",null,"W",null,"W","W","W",null,"W",null,"W",null,"W",null,"W",null,"W",null,"W","W",null,"W",null,"W",null,"W",null,"W",null,"W",null,"W","W","W","W","W","W","W","W","W","W","W","W","W","W","W","W","W","W",null,"W","W"],[null,"W","W","W","W","W","W","W","W",null,"W","W","W","W","W","W","W","W",null,"W","W","W","W","W","W","W","W",null,"W","W","W","W","W","W","W","W",null,"W","W"],[],[],[null,null,null,null,null,null,null,null,null,null,null,null,null,null,null,null,null,null,null,null,"W","W","W","W","W","W","W",null,"W","W","W","W","W","W","W","W","W"]],"timingvisible":false,"tabcounter":36,"stave":17,"totalstaves":18,"instrument":"6guitar","selectedtuning":"6_standard","version":"13"}

Member for

2 weeks 6 days
Submitted by bobfossilmusic on Fri, 2020-07-31 12:11