Sound will begin in 5 seconds

Round Here

Chords
01234567891011121314151617181920212223
E
B
G
D
A
E
B
0 1 2 3 4 5 6 7 8 9 10 11 12 13 14 15 16 17 18 19 20 21 22 23
(/) Slide Up  (\) Slide Down  (h) Hammer On  (p) Pull Off  (b) Bend (r) Release (v) Vibrato

Intro:

E|--------------------------------------------------------7-----5-----
B|--------------------------------------------------------7-----5-----
G|-----9--9-----9-----11--11-----11-----13--13-----13-----8-----6--1--
D|-----9--9-----9-----11--11-----11-----11--11-----11-----9-----7--2--
A|-----7--7-----7-----9---9------9------12--12-----12-----9-----7--2--
E|--0--0--0--0--0--0--0---0---0--0---0--0---0---0--0---7--7--5--5-----

Bridge:

E|--3--1--5--3-----
B|--3--1--5--3-----
G|--3--1--6--4--1--
D|--5--3--7--5--2--
A|--5--3--7--5--2--
E|--3--1--5--3-----

Chorus:

E|-----7-----5-----
B|-----7-----5-----
G|-----8-----6--1--
D|-----9-----7--2--
A|-----9-----7--2--
E|--7--7--5--5-----

http://www.guitartabcreator.com
Guitar Tab Creator is intended to store guitar tab created through the tool. It currently does not support in-line text editing. Any text you place in here will be lost. If you need to comment on your tab, please use the "Tab Notes" section located below.