Sound will begin in 5 seconds

JM LGN 2

Chords
01234567891011121314151617181920212223
E
B
G
D
A
E
B
0 1 2 3 4 5 6 7 8 9 10 11 12 13 14 15 16 17 18 19 20 21 22 23
Song Science #1: How Pros Use 6 Chords to Write Hit Songs
(/) Slide Up  (\) Slide Down  (h) Hammer On  (p) Pull Off  (b) Bend (r) Release (v) Vibrato

Stave 1:

E|------------------------------|-----|--------------------------------------------------------------|--
B|------------------------------|-----|--13b15--10------10h13p10------10--------------------10-------|--
G|-------------10h11------------|-----|-------------12------------12------12p10------10h12------10v--|--
D|------9--12-------------------|-----|------------------------------------------12------------------|--
A|--12----------------12--12\3--|-----|--------------------------------------------------------------|--
E|------------------------------|-----|--------------------------------------------------------------|--

Stave 2:

E|-----------------------------------------------------------|--
B|-------------------------------------------------------10--|--
G|-------------------------------------------------------10--|--
D|--12p10--------------------------------------------12------|--
A|---------12--11--10h11p10------10------10------------------|--
E|---------------------------13------13------13--10----------|--

http://www.guitartabcreator.com
Guitar Tab Creator is intended to store guitar tab created through the tool. It currently does not support in-line text editing. Any text you place in here will be lost. If you need to comment on your tab, please use the "Tab Notes" section located below.