Sound will begin in 5 seconds

Even So Come

01234567891011121314151617181920212223
E
B
G
D
A
E
B
0 1 2 3 4 5 6 7 8 9 10 11 12 13 14 15 16 17 18 19 20 21 22 23
Song Science #1: How Pros Use 6 Chords to Write Hit Songs
(/) Slide Up  (\) Slide Down  (h) Hammer On  (p) Pull Off  (b) Bend (r) Release (v) Vibrato

Stave 1:

E|---------17--16-----------------------17--16-----------------------------------
B|--14\17------------------------14\17-------------------------------17----------
G|-----------------16--18-----------------------16--18--------14\18--------------
D|-----------------------------------------------------------------------19--18--
A|-------------------------------------------------------------------------------
E|-------------------------------------------------------------------------------

Stave 2:

E|-----------------------------------
B|-----------------------------------
G|-----------------------------------
D|-----------------------------------
A|-----------------------------------
E|-----------------------------------

Stave 3:

E|----------------------------------
B|--12-----14-----15-----14-----12--
G|----------------------------------
D|----------------------------------
A|----------------------------------
E|----------------------------------

Stave 4:

E|-----------------------------------------17--16-----------------------17--16------
B|--14--12--------14--12--------15--14\17--------------------15--14\17--------------
G|-------------------------------------------------16---------------------------16--
D|----------------------------------------------------------------------------------
A|----------------------------------------------------------------------------------
E|----------------------------------------------------------------------------------

Stave 5:

E|------------------------------------------------------
B|--------------------14--------15--------14--------12--
G|--4--------6------------------------------------------
D|------------------------------------------------------
A|------------------------------------------------------
E|------------------------------------------------------

Stave 6:

E|--14--------10--------9--------12--------14--------10--------9--------12--------14---------17--17--17--16-----16--
B|------------------------------------------------------------------------------------15\17-------------------------
G|------------------------------------------------------------------------------------------------------------------
D|------------------------------------------------------------------------------------------------------------------
A|------------------------------------------------------------------------------------------------------------------
E|------------------------------------------------------------------------------------------------------------------

Stave 7:

E|--14--12------------14--12------------14--------12------------------14--------12--------12--
B|----------12----------------12----------------------------12--------------------------------
G|--------------------------------------------------------------------------------------------
D|--------------------------------------------------------------------------------------------
A|--------------------------------------------------------------------------------------------
E|--------------------------------------------------------------------------------------------

Stave 8:

E|--14--------10--------9--------12-----------14---------------17--17--17--16--------16------------
B|------------------------------------------------------15\17--------------------------------------
G|---------------------------------------------------------------------------------------------14--
D|-------------------------------------------------------------------------------------------------
A|-------------------------------------------------------------------------------------------------
E|-------------------------------------------------------------------------------------------------

Stave 9:

E|--------------------------------------------------------------------------
B|--17--17--15--14------------17--17--15--14------------17--17--15--14------
G|------------------14------------------------14------------------------16--
D|--------------------------------------------------------------------------
A|--------------------------------------------------------------------------
E|--------------------------------------------------------------------------

Stave 10:

E|--14--------17--------16------------------14---------------17--17--17--16--------16--
B|----------------------------------------------------15\17----------------------------
G|--------------------------------16---------------------------------------------------
D|-------------------------------------------------------------------------------------
A|-------------------------------------------------------------------------------------
E|-------------------------------------------------------------------------------------

Stave 11:

E|------------------------------14--12--15--12------
B|----------------------------------------------12--
G|--7--------11--------9----------------------------
D|--------------------------------------------------
A|--------------------------------------------------
E|--------------------------------------------------

http://www.guitartabcreator.com
Guitar Tab Creator is intended to store guitar tab created through the tool. It currently does not support in-line text editing. Any text you place in here will be lost. If you need to comment on your tab, please use the "Tab Notes" section located below.