Sound will begin in 5 seconds

pentatonica

Chords
01234567891011121314151617181920212223
E
B
G
D
A
E
B
0 1 2 3 4 5 6 7 8 9 10 11 12 13 14 15 16 17 18 19 20 21 22 23
Song Science #1: How Pros Use 6 Chords to Write Hit Songs
(/) Slide Up  (\) Slide Down  (h) Hammer On  (p) Pull Off  (b) Bend (r) Release (v) Vibrato

Stave 1:

E|--------------------------------------------------------------3--3--5--5--|--
B|--------------------------------------------------3--3--5--5--------------|--
G|--------------------------------------2--2--5--5--------------------------|--
D|--------------------------2--2--5--5--------------------------------------|--
A|--------------3--3--5--5--------------------------------------------------|--
E|--3--3--5--5--------------------------------------------------------------|--

Stave 2:

E|--------------------------------------------------------------5--5--8--8--|--
B|--------------------------------------------------5--5--8--8--------------|--
G|--------------------------------------5--5--7--7--------------------------|--
D|--------------------------5--5--7--7--------------------------------------|--
A|--------------5--5--7--7--------------------------------------------------|--
E|--5--5--8--8--------------------------------------------------------------|--

Stave 3:

E|--------------------------------------------------------|--
B|--------------------------------------------------------|--
G|--------------------------------------------7--7--9--9--|--
D|------------------------------7--7--10--10--------------|--
A|----------------7--7--10--10----------------------------|--
E|--8--8--10--10------------------------------------------|--

Stave 4:

E|----------------8--8--10--10--|--
B|--8--8--10--10----------------|--
G|------------------------------|--
D|------------------------------|--
A|------------------------------|--
E|------------------------------|--

Stave 5:

E|--0-----------------|--------------|--------------|--
B|--------3-----------|--1-----------|--3-----------|--
G|-----2--------2-----|--------2-----|-----2--------|--
D|-----------------2--|-----------2--|--------------|--
A|--------------------|--------------|--------------|--
E|--------------------|--------------|--------------|--

Stave 6:

E|--0-----------------|--------------|-----------------|--
B|--------3-----------|--1-----------|--3--------------|--
G|-----2-----2--------|--------2-----|-----------------|--
D|--------------2-----|-----------2--|-----------------|--
A|--------------------|--------------|--------3--2--0--|--
E|--------------------|--------------|-----------------|--

Stave 7:

E|-----------------------------------|--
B|-----------------------------------|--
G|--9--7--9--7--5--7-----------------|--
D|--7--7--7--5--5--7-----------------|--
A|--------------------------3--2--0--|--
E|-----------------------------------|--

http://www.guitartabcreator.com
Guitar Tab Creator is intended to store guitar tab created through the tool. It currently does not support in-line text editing. Any text you place in here will be lost. If you need to comment on your tab, please use the "Tab Notes" section located below.