Sound will begin in 5 seconds

nine pound hammer

Chords
01234567891011121314151617181920212223
E
B
G
D
A
E
B
0 1 2 3 4 5 6 7 8 9 10 11 12 13 14 15 16 17 18 19 20 21 22 23
Song Science #1: How Pros Use 6 Chords to Write Hit Songs
(/) Slide Up  (\) Slide Down  (h) Hammer On  (p) Pull Off  (b) Bend (r) Release (v) Vibrato

Stave 1:

E|--0--------------------0--|-----------3--4--0--2-----|--
B|-----------------0--------|--------------------------|--
G|--------------------------|--------------------------|--
D|--------------------------|--0-----------------------|--
A|--------------2-----4-----|--------4-----2-----------|--
E|--0-----4-----------------|--------------------4-----|--

Stave 2:

E|--0-----------------------|-----3--------2--0--------|--
B|-----------2--------------|-----------2--------------|--
G|--------------------------|--------------------------|--
D|--------------2-----4-----|--6-----4-----2-----------|--
A|--0-----4-----------------|--------------------4-----|--
E|--------------------------|--------------------------|--

Stave 3:

E|--------------------------|-----------------------0--|--
B|--2--------0--------------|-----0--------0--0--2-----|--
G|-----0--1-----------------|-----------2--------------|--
D|--------------------------|--------------------------|--
A|--------------0-----1-----|--2-----0-----------------|--
E|--0-----4-----------------|--------------4-----2-----|--

Stave 4:

E|-----------------------0--|--------------------------|--
B|-----------2--------------|--------0--0--0--0--2-----|--
G|--------------------------|--------------------------|--
D|--------------------------|--------------------1-----|--
A|--------------0-----2-----|--------2-----4-----------|--
E|--0-----4-----------------|--0-----------------------|--

Stave 5:

E|--------------9-----7-----|--
B|--------------5-----------|--
G|--------------6-----------|--
D|--------------------------|--
A|--------------------------|--
E|--0-----------------------|--

Stave 6:

E|--4--------4--------------|--9-----7--------0--------|--
B|--------3-----------------|--------------8-----7-----|--
G|-----4--------------------|--------------------------|--
D|--------------------------|--------------------------|--
A|--------------2-----4-----|--7-----5-----------------|--
E|--0-----4-----------------|--------------9-----7-----|--

Stave 7:

E|--0-----------------------|--9------7--------0--------|--
B|--------------------------|---------------8-----7-----|--
G|-----------6--------------|---------------------------|--
D|--------------------4-----|---------------------------|--
A|--0-----4-----7-----------|--10-----9-----7-----------|--
E|--------------------------|---------------------9-----|--

Stave 8:

E|--0-----------------------|--------------------------|--
B|-----------0--------------|-----0--------0--0--2-----|--
G|--------------------------|-----------2--------------|--
D|--------------------------|--------------------------|--
A|--------------0-----1-----|--2-----0-----------------|--
E|--0-----4-----------------|--------------4-----2-----|--

Stave 9:

E|--0--------------------0--|--------------------------|--
B|-----------2--------------|--------------------------|--
G|--------------------------|--------------------------|--
D|--------------------------|--------------------------|--
A|--------------0-----2-----|--------------------------|--
E|--0-----4-----------------|--0-----------------------|--

http://www.guitartabcreator.com
Guitar Tab Creator is intended to store guitar tab created through the tool. It currently does not support in-line text editing. Any text you place in here will be lost. If you need to comment on your tab, please use the "Tab Notes" section located below.