Sound will begin in 5 seconds

fingerpick 050216

Chords
01234567891011121314151617181920212223
E
B
G
D
A
E
B
0 1 2 3 4 5 6 7 8 9 10 11 12 13 14 15 16 17 18 19 20 21 22 23
Song Science #1: How Pros Use 6 Chords to Write Hit Songs
(/) Slide Up  (\) Slide Down  (h) Hammer On  (p) Pull Off  (b) Bend (r) Release (v) Vibrato

Stave 1:

E|-----0--2--4--4--|--5--2--4--0--0--|--
B|--0--------------|-----------------|--
G|-----1--2--4--4--|--6--2--4--1--1--|--
D|-----------------|-----------------|--
A|-----------------|-----------------|--
E|-----------------|-----------------|--

Stave 2:

E|--0--2--4--5--9--|--9--7--5--4--|--
B|-----------------|--------------|--
G|--1--2--4--6--9--|--9--8--6--4--|--
D|-----------------|--------------|--
A|-----------------|--------------|--
E|-----------------|--------------|--

Stave 3:

E|--0--2--4--5--9--|--7--5--4--0--|--
B|-----------------|--------------|--
G|--1--2--4--6--9--|--8--6--4--1--|--
D|-----------------|--------------|--
A|-----------------|--------------|--
E|-----------------|--------------|--

Stave 4:

E|--0--2--4--5--2--4--0--|--
B|--------2-----4--------|--
G|--1--2--------------1--|--
D|-----------------------|--
A|-----------------------|--
E|-----------------------|--

Stave 5:

E|-----------------|--------------------------|--------------------|--
B|-----------0--1--|--0--------------0--1--3--|-----------------1--|--
G|-----------------|-----------2--0--0--------|--2-----------------|--
D|-----------------|--------------0-----------|--0-----------------|--
A|-----------------|--------2-----------------|--------------------|--
E|-----------------|--3--------------3--------|--------------------|--

Stave 6:

E|--------------------------|-----------------------|--
B|--0-----------------------|-----------------0--1--|--
G|-----------2--0-----------|--0--------------------|--
D|--------------0--2--0--2--|-----------------------|--
A|--------2--------3--------|-----------------------|--
E|--3-----------------------|--3--------------------|--

Stave 7:

E|--------------------------|--
B|--------------------0--1--|--
G|--2--0--2--2-----2--------|--
D|--0-----------------------|--
A|--------------------------|--
E|--------------------------|--

Stave 8:

E|--------------------0--2--|--
B|--------------------------|--
G|-----------0--------------|--
D|--------0-----------------|--
A|-----2--------------------|--
E|--3-----------------------|--

Stave 9:

E|--3-----5--2--3--3--2--0--|--
B|-----0--------------------|--
G|-----0--------------------|--
D|-----------------0--------|--
A|--------------------------|--
E|--0-----------------------|--

Stave 10:

E|-----------------------|--------------------------|--
B|--3-----1--0--3-----1--|--0-----------0--1--3-----|--
G|-----------------2-----|--------2--0--0--------2--|--
D|-----------0--------0--|-----------0--------------|--
A|-----2-----------0-----|-----2--------------------|--
E|--3-----------2--------|--0-----------------------|--

Stave 11:

E|-----------------0--2--|--
B|-----------------------|--
G|-----------------------|--
D|--0--------------------|--
A|-----------------------|--
E|-----------------------|--

Stave 12:

E|-----------------------------|--
B|--3-----1--0-----3--------1--|--
G|--------------------------2--|--
D|-----------------------------|--
A|-----------------2--------3--|--
E|--3--------------------------|--

Stave 13:

E|-----------------------------|-----------------------------|--
B|--0--0--------------1--------|--------0--1--0--------0--1--|--
G|--------2--0-----2--------0--|--------0--2--0--------------|--
D|--0--------------------4-----|-----0-----------------------|--
A|-----------------------------|-----------------------------|--
E|-----------------------------|--3--------------------------|--

Stave 14:

E|-----------------------------|-----------------------------------|--
B|--0--------------0--1--3-----|-----------------------------0--1--|--
G|-----------2--0-----------2--|-----4--2--0-----2--2-----2--------|--
D|--------------0--------------|--0--------------------------------|--
A|--------2--------------------|-----------------------------------|--
E|--3--------------3-----------|-----------------------------------|--

Stave 15:

E|-----------3-----------------------|--
B|-----------------------------------|--
G|--------0--------------------------|--
D|-----0-----------------------------|--
A|-----------------------------------|--
E|--3--------------------------------|--

http://www.guitartabcreator.com
Guitar Tab Creator is intended to store guitar tab created through the tool. It currently does not support in-line text editing. Any text you place in here will be lost. If you need to comment on your tab, please use the "Tab Notes" section located below.