Sound will begin in 5 seconds

few hours before

Chords
01234567891011121314151617181920212223
E
B
G
D
A
E
B
0 1 2 3 4 5 6 7 8 9 10 11 12 13 14 15 16 17 18 19 20 21 22 23
Song Science #1: How Pros Use 6 Chords to Write Hit Songs
(/) Slide Up  (\) Slide Down  (h) Hammer On  (p) Pull Off  (b) Bend (r) Release (v) Vibrato

Stave 1:

E|--------0-----|--------------|--3-----4--5-----|--2-----3--|--
B|--------------|--3-----------|--0--------------|--3--------|--
G|--4-----------|-----------4--|--0--------------|-----------|--
D|--2-----------|--4-----------|-----------------|-----------|--
A|--3--------2--|--------------|--------------2--|-----------|--
E|--------------|--------------|--0--------------|-----------|--

Stave 2:

E|--0-----------|-----------|-----------|-----------|--
B|--0-----3-----|-----------|-----------|-----------|--
G|--0-----------|--------5--|--4-----0--|--2--------|--
D|--------------|--4--------|--2--------|--------0--|--
A|--3--------5--|-----------|-----------|-----------|--
E|--------------|-----------|--0--------|--2--------|--

Stave 3:

E|--0-----------|-----------|--------------|--
B|--0-----3-----|-----------|--------------|--
G|--0-----------|--------0--|--0-----------|--
D|--------------|--4--------|--0-----------|--
A|--3--------5--|-----------|--------------|--
E|--------------|-----------|--3-----------|--

Stave 4:

E|--0-----3/7--|--7--------10/12--|--12--------10--|--
B|--0----------|--7---------------|--12------------|--
G|--0----------|--7---------------|--12--0---------|--
D|-------------|--0---------------|----------------|--
A|--3----------|-----9------------|----------------|--
E|-------------|------------------|--0-------------|--

Stave 5:

E|--7--------10--|--5--------7--|--0--------|--
B|--7------------|--5-----------|--0-----3--|--
G|--7------------|--5-----------|--0--------|--
D|--0------------|--------------|-----------|--
A|-----9---------|--0--7--------|--3--------|--
E|---------------|--------------|-----------|--

Stave 6:

E|--0-----------|--------------|--
B|--0-----------|--------------|--
G|--0-----------|--2-----------|--
D|--------------|-----------0--|--
A|--------------|--------------|--
E|--0-----------|--2-----------|--

Stave 7:

E|--0-----------------|--
B|--0-----------------|--
G|--1-----------------|--
D|--------------------|--
A|--------------------|--
E|--0-----------------|--

http://www.guitartabcreator.com
Guitar Tab Creator is intended to store guitar tab created through the tool. It currently does not support in-line text editing. Any text you place in here will be lost. If you need to comment on your tab, please use the "Tab Notes" section located below.