Sound will begin in 5 seconds

esercizi slide

Chords
01234567891011121314151617181920212223
E
B
G
D
A
E
B
0 1 2 3 4 5 6 7 8 9 10 11 12 13 14 15 16 17 18 19 20 21 22 23
Song Science #1: How Pros Use 6 Chords to Write Hit Songs
(/) Slide Up  (\) Slide Down  (h) Hammer On  (p) Pull Off  (b) Bend (r) Release (v) Vibrato

Stave 1:

D |-----------0--2/4--0--5--|--5/7--------7--5/7--0--2/4--|--
A |-------------------------|-----------------------------|--
Gb|-------------------------|-----------------------------|--
D |-------------------------|-----------------------------|--
A |-------------------------|-----------------------------|--
D |-------------------------|-----------------------------|--

Stave 2:

D |--0--------7--5/7--0--|--4/5--------7--4/5--0--2/4--|--
A |----------------------|-----------------------------|--
Gb|----------------------|-----------------------------|--
D |----------------------|-----------------------------|--
A |----------------------|-----------------------------|--
D |----------------------|-----------------------------|--

Stave 3:

D |--0--------0--0--|--2/4--4--------2/4--4--|--
A |-----------------|------------------------|--
Gb|-----------------|------------------------|--
D |-----------------|------------------------|--
A |-----------------|------------------------|--
D |-----------------|------------------------|--

Stave 4:

D |--2/4--0--------0--0--|--2/4--0--5/7\5--2/4--0--|--
A |----------------------|-------------------------|--
Gb|----------------------|-------------------------|--
D |----------------------|-------------------------|--
A |----------------------|-------------------------|--
D |----------------------|-------------------------|--

Stave 5:

D |--5/7--7-----0--3-----3--|--0--------------------|--
A |-------------------------|-----------------------|--
Gb|-------------------------|-----------------------|--
D |-------------------------|-----------------------|--
A |-------------------------|-----------------------|--
D |----0-----0-----0-----0--|--0-----0-----0-----0--|--

Stave 6:

D |--10/12--12--12--12--12--0--10--12--|-----------------0-----0--|--
A |------------------------------------|--------------------------|--
Gb|------------------------------------|--------------------------|--
D |------------------------------------|--------------------------|--
A |------------------------------------|--------------------------|--
D |-----0-------0-------0------0-------|--0-----0-----0-----0-----|--

Stave 7:

D |--10--12-----12-----0-----0--|--3--5-----5-----0--3--0--|--
A |-----------------------------|--------------------------|--
Gb|-----------------------------|--------------------------|--
D |-----------------------------|--------------------------|--
A |-----------------------------|--------------------------|--
D |--0-------0------0-----0-----|--0-----0-----0-----0-----|--

Stave 8:

D |------------------------------------------------------|--
A |------------12----------------------------------------|--
Gb|--10/12---------10/12---------------------------------|--
D |--------------------------12--------------------------|--
A |------------------------------------------------------|--
D |-----0------0------0------0------0-----0-----0-----0--|--

Stave 9:

D |---------------------------------------------------|--
A |----------5----------------------------------------|--
Gb|--3/5-----------3/5--------------------------------|--
D |------------------------5--------------------------|--
A |---------------------------------------------------|--
D |--3-5-----5-----3-5-----5-----5-----5-----5-----5--|--

Stave 10:

D |---------------------------------------------------|--
A |----------7----------------------------------------|--
Gb|--5/7-----------5/7--------------------------------|--
D |------------------------7--------------------------|--
A |---------------------------------------------------|--
D |--5-7-----7-----5-7-----7-----7-----7-----7-----7--|--

Stave 11:

D |----------------------------------------------------------|--
A |------------12-----------------10/12\10-------------------|--
Gb|--10/12-------------------------------------10/12---------|--
D |------------------------------------------------------12--|--
A |----------------------------------------------------------|--
D |-----0------0------0-----0---------------------0------0---|--

Stave 12:

D |--5/7--7--7--7--7--0--3--0--|--------------------|--
A |----------------------------|--------------------|--
Gb|----------------------------|--------------------|--
D |----------------------------|--------------------|--
A |----------------------------|--------------------|--
D |----0-----0-----0-----0-----|--0-----0-----0-----|--

Stave 13:

D |--------------------------------------------------|--
A |--------------------------------------------------|--
Gb|--------------------------------------------------|--
D |--------------------------------------------------|--
A |--------------------------------------------------|--
D |--0-----0-----0-----0-----0-----------------------|--

http://www.guitartabcreator.com
Guitar Tab Creator is intended to store guitar tab created through the tool. It currently does not support in-line text editing. Any text you place in here will be lost. If you need to comment on your tab, please use the "Tab Notes" section located below.