Sound will begin in 5 seconds

esercizi jazz 111215

Chords
01234567891011121314151617181920212223
E
B
G
D
A
E
B
0 1 2 3 4 5 6 7 8 9 10 11 12 13 14 15 16 17 18 19 20 21 22 23
Song Science #1: How Pros Use 6 Chords to Write Hit Songs
(/) Slide Up  (\) Slide Down  (h) Hammer On  (p) Pull Off  (b) Bend (r) Release (v) Vibrato

Stave 1:

E|------------------------------|---------7--11--7-------------|--
B|--------------------------11--|------------------------------|--
G|---------8------10------------|--8--10------------10--8--10--|--
D|--------------------8--9------|------------------------------|--
A|--8--10-----11----------------|------------------------------|--
E|------------------------------|------------------------------|--

Stave 2:

E|--------------------------|--
B|--8-----------------------|--
G|---------8----------------|--
D|-----10---------10--------|--
A|------------10------------|--
E|--------------------------|--

Stave 3:

E|--------------|---------------|--------------|--
B|--3--5--6--8--|--8--10--6--3--|--1--3--5--6--|--
G|--2--5--5--5--|--9--9---4--0--|--0--0--4--4--|--
D|--3--3--7--7--|--9--9---5--3--|--2--2--5--5--|--
A|--3--5--5--5--|--8--8---5--2--|--3--3--3--3--|--
E|--------------|---------------|--------------|--

Stave 4:

E|--5-----3-----------------------|--------------------------------|-----
B|-----------4-----6-----------4--|--------------------------------|-----
G|--------------4-----------4-----|--6--6--4-----------------------|-----
D|-----------------------5--------|-----------5-----7-----------3--|--5--
A|--------------------------------|--------------6-----------4-----|-----
E|--------------------------------|-----------------------5--------|-----

Stave 5:

E|------------8--12--10--8--5--|--7--8--10--12--13--15--13--10--|--
B|--6--8--10-----10------6-----|--6-----10------12------12------|--
G|--5-----9------10------7-----|--7-----10------12------12------|--
D|--7-----10-----10------7-----|--5-----9-------12------12------|--
A|--5-----8--------------------|--------------------------------|--
E|-----------------------------|--------------------------------|--

Stave 6:

E|--8--10--7--5-----------3--|--
B|--8------5-----5--3--5-----|--
G|--9------5-----4-----4-----|--
D|--9------5-----5-----5-----|--
A|---------------3-----3-----|--
E|---------------------------|--

Stave 7:

E|--10--8--7-------------------|--------------------------|-----
B|------------10--8------------|--------------------------|-----
G|-------------------8--7------|--------------------------|-----
D|-------------------------10--|--9--7--5-----------------|-----
A|-----------------------------|-----------6--5-----------|-----
E|-----------------------------|-----------------8--7--5--|--7--

Stave 8:

E|-----------10--9--7--|--8-----7---------7---------------------------------|--
B|---------------------|-----9-----9--10-----9-----10--7--9-----7-----------|--
G|---------------------|------------------------9------------9-----7--------|--
D|---------------------|----------------------------------------------9--7--|--
A|---------------------|----------------------------------------------------|--
E|---------------------|----------------------------------------------------|--

Stave 9:

E|--------------------------------|--
B|--------------------------------|--
G|--------------------------------|--
D|--6--9-----6--------------------|--
A|--------7-----9--7--------------|--
E|--------------------8-----------|--

Stave 10:

E|-----------------------------------------------------|--
B|----------------------------8--9--------------7--10--|--
G|------------------7------9--------9--------7---------|--
D|---------------7-----10--------------9--7------------|--
A|-----7--10--9----------------------------------------|--
E|--8--------------------------------------------------|--

Stave 11:

E|--10-----8--12--10------------------------------------------|------
B|------8-------------13--12--10--9---------------------------|------
G|-----------------------------------11--9--------------------|------
D|------------------------------------------10--9----------9--|------
A|-------------------------------------------------12--11-----|--12--
E|------------------------------------------------------------|------

Stave 12:

E|--------------------8--6--5--------5--------------|--
B|-----------6--5--8--------------6-----8--6--------|--
G|--------6--------------------6--------------6-----|--
D|--5--8-----------------------------------------8--|--
A|--------------------------------------------------|--
E|--------------------------------------------------|--

Stave 13:

E|--------------------------------------------------|--
B|--------------------------------------------------|--
G|--8--6--5--------5--------------------------------|--
D|--------------6-----8--6--------------------------|--
A|-----------7--------------6-----9--7--6-----------|--
E|-----------------------------9-----------9--6--7--|--

Stave 14:

E|-------------------------------------------11--8---------|--
B|------------------------------------8--11----------------|--
G|----------------------8----------8--------------------8--|--
D|------------------10---------10-------------------10-----|--
A|-----------8--11---------11------------------------------|--
E|--8------------------------------------------------------|--

Stave 15:

E|--------------------------------------------------------|--
B|--8--11--9---------------8------------------------------|--
G|----------------------8-----10--------------------------|--
D|------------------10------------------------------------|--
A|--------------------------------------------------------|--
E|--------------------------------------------------------|--

Stave 16:

E|-----------------
B|--6-----------2--
G|--3-----------3--
D|--5-----------2--
A|--4-----------3--
E|-----------------

http://www.guitartabcreator.com
Guitar Tab Creator is intended to store guitar tab created through the tool. It currently does not support in-line text editing. Any text you place in here will be lost. If you need to comment on your tab, please use the "Tab Notes" section located below.