Sound will begin in 5 seconds

esercizi 111215

01234567891011121314151617181920212223
E
B
G
D
A
E
B
0 1 2 3 4 5 6 7 8 9 10 11 12 13 14 15 16 17 18 19 20 21 22 23
Song Science #1: How Pros Use 6 Chords to Write Hit Songs
(/) Slide Up  (\) Slide Down  (h) Hammer On  (p) Pull Off  (b) Bend (r) Release (v) Vibrato

Stave 1:

E|--------------------------------------|--------------------------------|--
B|--------------------------------------|--------------------5-----------|--
G|--------------------------------------|--------5-----5--7-----7--5-----|--
D|--------------------------5-----5--7--|--5--7-----7-----------------7--|--
A|--------5-----5--7--5--7-----7--------|--------------------------------|--
E|--5--8-----8--------------------------|--------------------------------|--

Stave 2:

E|--8--5-----5--------------------------|--------------------------------|--
B|--------8-----8--5--8--5-----5--------|--------------------------------|--
G|--------------------------7-----7--5--|--7--5-----5-----------------5--|--
D|--------------------------------------|--------7-----7--5-----5--7-----|--
A|--------------------------------------|--------------------7-----------|--
E|--------------------------------------|--------------------------------|--

Stave 3:

E|--3-----------------------|--2-----------------------|--
B|-----0--------------------|-----3--------------------|--
G|--------0-----------------|--------2-----------------|--
D|-----------0--------------|-----------0--------------|--
A|--------------------------|--------------------------|--
E|--------------------------|--------------------------|--

Stave 4:

E|--0-----------------------|--3-----------------------|--
B|-----1--------------------|-----0--------------------|--
G|--------0-----------------|--------0-----------------|--
D|-----------2--------------|-----------0--------------|--
A|--------------------------|--------------------------|--
E|--------------------------|--------------------------|--

Stave 5:

E|--------------------------|--------2-----------------|--
B|--------0-----------------|-----------3--------------|--
G|-----------0--------------|-----2--------------------|--
D|--------------------------|--0-----------------------|--
A|-----2--------------------|--------------------------|--
E|--3-----------------------|--------------------------|--

Stave 6:

E|--------0-----------------|--------------------------|--
B|-----------1--------------|--------0-----------------|--
G|--------------------------|-----------0--------------|--
D|-----2--------------------|--------------------------|--
A|--3-----------------------|-----2--------------------|--
E|--------------------------|--3-----------------------|--

Stave 7:

E|--------------------------|---------------------------|--
B|--------------------------|---------------------------|--
G|-----------4--------------|--------------11-----------|--
D|--------5-----------------|----------12---------------|--
A|-----5--------------------|------12-------------------|--
E|--3-----------------------|--10-----------------------|--

Stave 8:

E|----------------------------|--------------------------|--
B|----------------------------|--------------------------|--
G|-------------9--------------|-----------4--------------|--
D|---------10-----------------|--------5-----------------|--
A|-----10---------------------|-----5--------------------|--
E|--8-------------------------|--3-----------------------|--

http://www.guitartabcreator.com
Guitar Tab Creator is intended to store guitar tab created through the tool. It currently does not support in-line text editing. Any text you place in here will be lost. If you need to comment on your tab, please use the "Tab Notes" section located below.