Sound will begin in 5 seconds

autumn leaves

Chords
01234567891011121314151617181920212223
E
B
G
D
A
E
B
0 1 2 3 4 5 6 7 8 9 10 11 12 13 14 15 16 17 18 19 20 21 22 23
Song Science #1: How Pros Use 6 Chords to Write Hit Songs
(/) Slide Up  (\) Slide Down  (h) Hammer On  (p) Pull Off  (b) Bend (r) Release (v) Vibrato

Stave 1:

E|-----------------|--1-----------------------------|--
B|-----------0--1--|-----------3--1--0-----------0--|--
G|--------2--------|--------2--------------0--2-----|--
D|-----------------|--0-----------------------------|--
A|-----------------|--------------------------------|--
E|-----------------|-----------------3--------------|--

Stave 2:

E|--0-----------------------------|--------------------------------|--
B|-----------0--------------------|--3-----------------------------|--
G|--------0-----0--2--------0--2--|-----------2-----1-----------0--|--
D|-----------------------3--------|--------3-----3--------2--4-----|--
A|--3-----------------------------|--2-----------------------------|--
E|-----------------1--------------|-----------------0--------------|--

Stave 3:

E|--------------------------------|--
B|--1-----------------------0--1--|--
G|-----------------------2--------|--
D|--------2--3--0--2--------------|--
A|--0-----------------------------|--
E|--------------------------------|--

Stave 4:

E|--------------------------------|--
B|--------------------------------|--
G|--2--------------------2--1--2--|--
D|--------2--3--0--2--------------|--
A|--0-----------------------------|--
E|--------------------------------|--

Stave 5:

E|--------------------------------|--------------------------------|--
B|--0--------------------0-----0--|--1--------------------1--0--1--|--
G|--------------1-----------2-----|-----------2--0-----------------|--
D|--------2--4-----2--------------|--------2--------4--------------|--
A|--------------------------------|--0-----------------------------|--
E|--0-----------------------------|--------------------------------|--

Stave 6:

E|-----------------3--------1-----|--0--------------------0-----0--|--
B|--3-----------------------------|--------------0-----------4-----|--
G|--------------0--------2-----1--|--------0--2-----5--------------|--
D|--------0--3--------------------|-----------------7--------------|--
A|--2-----------------------------|--3--------------0--------------|--
E|-----------------3--------------|--------------------------------|--

Stave 7:

E|--1--1--------------1-----|--0-----------------------------|--
B|--1-----3--3--0--0--3--3--|--------1-----------------------|--
G|--2-----2-----1-----1-----|--------2--1--0--------2--1--2--|--
D|--0-----3-----0-----2-----|-----------------4--------------|--
A|--------2-----------------|--0-----------------------------|--
E|--------------0-----------|--------------------------------|--

Stave 8:

E|--------------------------------|--------0-----------------|--
B|--3-----------1--0--------1-----|-----------3--1-----------|--
G|-----------2-----------2--1-----|--2--------------2--------|--
D|--------3--------------------2--|--------------------------|--
A|--------------------------------|--0--------------0--------|--
E|--1--------------0--------------|--------------------------|--

http://www.guitartabcreator.com
Guitar Tab Creator is intended to store guitar tab created through the tool. It currently does not support in-line text editing. Any text you place in here will be lost. If you need to comment on your tab, please use the "Tab Notes" section located below.