Sound will begin in 5 seconds

Where Is Your Boy

Chords
01234567891011121314151617181920212223
E
B
G
D
A
E
B
0 1 2 3 4 5 6 7 8 9 10 11 12 13 14 15 16 17 18 19 20 21 22 23
Song Science #1: How Pros Use 6 Chords to Write Hit Songs
(/) Slide Up  (\) Slide Down  (h) Hammer On  (p) Pull Off  (b) Bend (r) Release (v) Vibrato

Stave 1:

E|--------------
B|--------------
G|--------------
D|--0--0--9--7--
A|--0--0--9--7--
D|--0--0--9--7--

Stave 2:

E|-----------------|-----------------|---------------------------------------
B|-----------------|-----------------|---------------------------------------
G|--7--7-----7--7--|--2--2-----2--2--|--11--11-----11--11-----7--7-----7--7--
D|--x--x-----x--x--|--x--x-----x--x--|--x---x------x---x------x--x-----x--x--
A|--5--5-----5--5--|--0--0-----0--0--|--9---9------9---9------5--5-----5--5--
D|-----------------|-----------------|---------------------------------------

Stave 3:

E|--------------|--
B|--------------|--
G|--------------|--
D|--5--7--0--4--|--
A|--5--7--0--4--|--
D|--5--7--0--4--|--

Stave 4:

E|--------------------------------------------------|--------------
B|--7-----5-----7-----5-----7-----5-----7-----5-----|--------------
G|-----7-----7-----7-----7-----7-----7-----7-----7--|--6--7--7--7--
D|--------------------------------------------------|--x--x--x--x--
A|--------------------------------------------------|--4--5--5--5--
D|--------------------------------------------------|--------------

Stave 5:

E|--------------
B|--------------
G|--7--9--6--7--
D|--x--x--x--x--
A|--5--7--4--5--
D|--------------

Stave 6:

E|--------------------------------------------|-------
B|--------------------------------------------|-------
G|--------------------------------------------|-------
D|-----------7--------7-----------7--------7--|--7b9--
A|--5--5--5-----5--5-----5--5--5-----5--5-----|-------
D|--------------------------------------------|-------

Stave 7:

E|--------------------------
B|--------------------------
G|-----------------7-----7--
D|--9--9--7--7--0--x--0--x--
A|--9--9--7--7--0--5--0--5--
D|--9--9--7--7--0-----0-----

http://www.guitartabcreator.com
Guitar Tab Creator is intended to store guitar tab created through the tool. It currently does not support in-line text editing. Any text you place in here will be lost. If you need to comment on your tab, please use the "Tab Notes" section located below.