Sound will begin in 5 seconds

St. Patrick PVRIS

Chords
01234567891011121314151617181920212223
E
B
G
D
A
E
B
0 1 2 3 4 5 6 7 8 9 10 11 12 13 14 15 16 17 18 19 20 21 22 23
Song Science #1: How Pros Use 6 Chords to Write Hit Songs
(/) Slide Up  (\) Slide Down  (h) Hammer On  (p) Pull Off  (b) Bend (r) Release (v) Vibrato

Stave 1:

D|--------------
A|--------------
F|--8-----------
C|--8--5--8--5--
G|--6--5--8--5--
C|-----5--8--5--

Stave 2:

D|--3--6--5--------
A|-----------6--3--
F|-----------------
C|-----------------
G|-----------------
C|-----------------

Stave 3:

D|--18--18--18--|--18--18--18--|--18--18--18--|--15--15--15--
A|--18--18--18--|--18--18--18--|--18--18--18--|--15--15--15--
F|--------------|--------------|--------------|--------------
C|--------------|--------------|--------------|--------------
G|--------------|--------------|--------------|--------------
C|--------------|--------------|--------------|--------------

Stave 4:

D|--3--1--6-----8--5--6-----3--1--6------------13--
A|-----------------------------------------11------
F|-------------------------------------------------
C|-------------------------------------------------
G|-------------------------------------------------
C|-------------------------------------------------

Stave 5:

D|--3-----1--------
A|--------------3--
F|-----3-----3-----
C|-----------------
G|-----------------
C|-----------------

http://www.guitartabcreator.com
Guitar Tab Creator is intended to store guitar tab created through the tool. It currently does not support in-line text editing. Any text you place in here will be lost. If you need to comment on your tab, please use the "Tab Notes" section located below.