Sound will begin in 5 seconds

Serpents - Neck Deep

Chords
01234567891011121314151617181920212223
E
B
G
D
A
E
B
0 1 2 3 4 5 6 7 8 9 10 11 12 13 14 15 16 17 18 19 20 21 22 23
Song Science #1: How Pros Use 6 Chords to Write Hit Songs
(/) Slide Up  (\) Slide Down  (h) Hammer On  (p) Pull Off  (b) Bend (r) Release (v) Vibrato

Stave 1:

Eb|-----|-----
Bb|-----|-----
Gb|--7--|--3--
Db|--7--|--3--
Ab|--5--|--1--
Db|-----|-----

Stave 2:

Eb|-----------|--------------|--
Bb|--1--3-----|--1--3--------|--
Gb|--------2--|--------2--0--|--
Db|-----------|--------------|--
Ab|-----------|--------------|--
Db|-----------|--------------|--

Stave 3:

Eb|-----|-----|-----|--------
Bb|-----|-----|-----|--------
Gb|--7--|--5--|--3--|--------
Db|--7--|--5--|--3--|--5--3--
Ab|--5--|--3--|--1--|--5--3--
Db|-----|-----|-----|--5--3--

Stave 4:

Eb|--------1-----
Bb|--1--3-----3--
Gb|--------------
Db|--------------
Ab|--------------
Db|--------------

Stave 5:

Eb|------------
Bb|------------
Gb|--10--9--7--
Db|------------
Ab|--8---7--5--
Db|------------

Stave 6:

Eb|-----
Bb|-----
Gb|--7--
Db|--7--
Ab|--5--
Db|-----

Stave 7:

Eb|------------------|-----------------
Bb|------------------|-----------------
Gb|------------------|-----------------
Db|--0-----3p2--3p2--|-----3-----2--5--
Ab|--0---------------|-----3-----3--5--
Db|--0---------------|-----3-----2--5--

Stave 8:

Eb|--8--------------|--8------------------
Bb|-----6-----8--6--|-----6--8--6--8--10--
Gb|-----------------|---------------------
Db|-----------------|---------------------
Ab|-----------------|---------------------
Db|-----------------|---------------------

Stave 9:

Eb|--------------
Bb|--------------
Gb|-----3-----5--
Db|--0--3--3--5--
Ab|--0--1--3--3--
Db|--0-----3-----

Stave 10:

Eb|--------1--|-----3--1--0--1--|--3--3--1--5--|--3--0--1--
Bb|--1--3-----|--1--------------|--------------|-----------
Gb|-----------|-----------------|--------------|-----------
Db|-----------|-----------------|--------------|-----------
Ab|-----------|-----------------|--------------|-----------
Db|-----------|-----------------|--------------|-----------

Stave 11:

Eb|--------------------------------------|--------------|--------------
Bb|--6--5-----6--5-----6--5-----6--5-----|--6--5-----5--|--6--5-----8--
Gb|--------5--------5--------5--------5--|--------5-----|--------5-----
Db|--------------------------------------|--------------|--------------
Ab|--------------------------------------|--------------|--------------
Db|--------------------------------------|--------------|--------------

Stave 12:

Eb|-----|-----|-----|-----------|-----
Bb|-----|-----|-----|-----------|-----
Gb|--7--|--5--|--3--|--2--------|-----
Db|--7--|--5--|--3--|--2--5--3--|--0--
Ab|--5--|--3--|--1--|--0--5--3--|--0--
Db|-----|-----|-----|-----5--3--|--0--

http://www.guitartabcreator.com
Guitar Tab Creator is intended to store guitar tab created through the tool. It currently does not support in-line text editing. Any text you place in here will be lost. If you need to comment on your tab, please use the "Tab Notes" section located below.