Sound will begin in 5 seconds

Okay - Sophie Bierman

Chords
01234567891011121314151617181920212223
E
B
G
D
A
E
B
0 1 2 3 4 5 6 7 8 9 10 11 12 13 14 15 16 17 18 19 20 21 22 23
Song Science #1: How Pros Use 6 Chords to Write Hit Songs
(/) Slide Up  (\) Slide Down  (h) Hammer On  (p) Pull Off  (b) Bend (r) Release (v) Vibrato

Stave 1:

E|-----------------------------------------------------------------------------------
B|-----------------------------------------------------------------------------------
G|-----9--------9--------8--------8--------8--------8--------8--------8--------8-----
D|--------9--------9-----------------9--------9-----------------9--------9-----------
A|--7--------7--------7-----------------------------------6--------6--------6--------
E|-----------------------------7--------7--------7-----------------------------------

Stave 2:

E|--------------------------
B|--------------------------
G|-----11---------11-----9--
D|---------11---------------
A|--9----------9------9-----
E|--------------------------

Stave 3:

E|--0--2-----2--
B|--0--2--7--2--
G|--1--4--6--3--
D|--2--4--8--4--
A|--2--2--6--4--
E|--0--------2--

Stave 4:

E|---------------
B|--5------------
G|--4--7--8--11--
D|--2--8--6--11--
A|--2--6--6--9---
E|--0------------

Stave 5:

E|----------------------------------------------------------------------
B|--12--12--12--11--11--11--------------------11---------11---------11--
G|--------------------------11--11--------11---------11---------11------
D|-------------------------------------9----------9----------9----------
A|----------------------------------------------------------------------
E|----------------------------------------------------------------------

Stave 6:

E|-------------
B|-------------
G|---------11--
D|-----11------
A|--9----------
E|-------------

http://www.guitartabcreator.com
Guitar Tab Creator is intended to store guitar tab created through the tool. It currently does not support in-line text editing. Any text you place in here will be lost. If you need to comment on your tab, please use the "Tab Notes" section located below.