Sound will begin in 5 seconds

From Now On We Are Enemies - Fall Out Boy

Chords
01234567891011121314151617181920212223
E
B
G
D
A
E
B
0 1 2 3 4 5 6 7 8 9 10 11 12 13 14 15 16 17 18 19 20 21 22 23
Song Science #1: How Pros Use 6 Chords to Write Hit Songs
(/) Slide Up  (\) Slide Down  (h) Hammer On  (p) Pull Off  (b) Bend (r) Release (v) Vibrato

Stave 1:

E|----------------------------------|------------------------------
B|------12--15--12------12--15--12--|------12--15--12--10--12------
G|--14--------------14--------------|--14----------------------12--
D|----------------------------------|------------------------------
A|----------------------------------|------------------------------
D|----------------------------------|------------------------------

Stave 2:

E|----------------------------------|------------------------------
B|------12--15--12------12--15--12--|--15--12--10------------------
G|--14--------------14--------------|--------------12--14--12------
D|----------------------------------|--------------------------14--
A|----------------------------------|------------------------------
D|----------------------------------|------------------------------

Stave 3:

E|-------------------------
B|-------------------------
G|--------5----------------
D|--0--2--5----------------
A|--0--2--3-----5--2--0----
D|--0--2-----------------5/

Stave 4:

E|-----------------------------
B|-----------------------------
G|-----------------------5--5--
D|-----2--2--------------5--5--
A|-----2--2--5--2--5-----3--5--
D|-----2--2--------------------

Stave 5:

E|---------------------------------------------
B|---------------------------------------------
G|--11--12-----14--12-----11--12--------12--9--
D|---------------------------------------------
A|--9---10-----12--10-----9---10--------10--7--
D|---------------------------------------------

Stave 6:

E|--------------|-----------
B|--------------|-----------
G|--------5--7--|--------5--
D|--5--4--5--7--|--2--0--5--
A|--5--4--3--5--|--2--0--3--
D|--5--4--------|--2--0-----

Stave 7:

E|--------------|-----------|--------|--------
B|--------------|-----------|--------|--------
G|-----------9--|-----7--9--|--------|--------
D|-----5--7-----|--5--7-----|--5--2--|--5--0--
A|-----5--7--7--|--5--5--7--|--5--2--|--5--0--
D|-----5--7-----|--5--------|--5--2--|--5--0--

Stave 8:

E|-----
B|-----
G|--9--
D|-----
A|--7--
D|-----

http://www.guitartabcreator.com
Guitar Tab Creator is intended to store guitar tab created through the tool. It currently does not support in-line text editing. Any text you place in here will be lost. If you need to comment on your tab, please use the "Tab Notes" section located below.