Sound will begin in 5 seconds

Kali Ma - Neck Deep Tab

Chords
01234567891011121314151617181920212223
E
B
G
D
A
E
B
0 1 2 3 4 5 6 7 8 9 10 11 12 13 14 15 16 17 18 19 20 21 22 23
Song Science #1: How Pros Use 6 Chords to Write Hit Songs
(/) Slide Up  (\) Slide Down  (h) Hammer On  (p) Pull Off  (b) Bend (r) Release (v) Vibrato

Stave 1:

E|----------------------------
B|-------9-----9-----9--------
G|--5/6-----6-----6--------6--
D|-------------------------6--
A|----------------------------
E|----------------------------

Stave 2:

E|----------------------------
B|-------9-----9-----9-----9--
G|--5/6-----6-----6-----6-----
D|----------------------------
A|----------------------------
E|----------------------------

Stave 3:

E|------------x--x--x------------------------|--------------------------------------------------------
B|------------x--x--x------------------------|--------------------------------------------------------
G|--8--10--6--x--x--x-----8--8--8--8--10--6--|--10--10--10--10--10--10--10--10--10--8--8--8--8--6--6--
D|--x--x---x--x--x--x-----x--x--x--x--x---x--|--x---x---x---x---x---x---x---x---x---x--x--x--x--x--x--
A|--6--8---4--x--x--x-----6--6--6--6--8---4--|--8---8---8---8---8---8---8---8---8---6--6--6--6--4--4--
E|------------x--x--x------------------------|--------------------------------------------------------

Stave 4:

E|-----4-------------4------------------4-------------4--------------
B|--------6--4h6--------6--4h6--4h6--------6--4h6--------6--4h6/7\6--
G|-------------------------------------------------------------------
D|-------------------------------------------------------------------
A|-------------------------------------------------------------------
E|-------------------------------------------------------------------

Stave 5:

E|--4-------------4------------------2-------------2--1------------------------
B|-----6--4h6--------6--4h6--4h6--------6--4h6-----------4--2--1--2--1h2--1h2--
G|-----------------------------------------------------------------------------
D|-----------------------------------------------------------------------------
A|-----------------------------------------------------------------------------
E|-----------------------------------------------------------------------------

Stave 6:

E|--------------
B|--------------
G|--6-----------
D|--6--8--6--4--
A|--4--8--6--4--
E|-----6--4--2--

Stave 7:

E|--------------------
B|-----9--6-----9--6--
G|--6--------5--------
D|--------------------
A|--------------------
E|--------------------

Stave 8:

E|-----------|-----|-----x--x-----
B|-----------|-----|-----x--x-----
G|--8--6--5--|--8--|--6--x--x--6--
D|--x--x--x--|--x--|--x--x--x--x--
A|--6--4--3--|--6--|--4--x--x--4--
E|-----------|-----|-----x--x-----

Stave 9:

E|-----|--------
B|-----|--------
G|--6--|-----6--
D|--6--|--4--6--
A|--4--|--4--4--
E|-----|--2-----

http://www.guitartabcreator.com
Guitar Tab Creator is intended to store guitar tab created through the tool. It currently does not support in-line text editing. Any text you place in here will be lost. If you need to comment on your tab, please use the "Tab Notes" section located below.