Sound will begin in 5 seconds

December (Full Band) Tab

Chords
01234567891011121314151617181920212223
E
B
G
D
A
E
B
0 1 2 3 4 5 6 7 8 9 10 11 12 13 14 15 16 17 18 19 20 21 22 23
Song Science #1: How Pros Use 6 Chords to Write Hit Songs
(/) Slide Up  (\) Slide Down  (h) Hammer On  (p) Pull Off  (b) Bend (r) Release (v) Vibrato

Stave 1:

E|--------------
B|--------------
G|--3-----3--3--
D|--3-----3--3--
A|--1-----1--1--
E|--------------

Stave 2:

E|--------
B|--------
G|--3--2--
D|--3--3--
A|--------
E|--------

Stave 3:

E|--------------------
B|--------------------
G|--------------------
D|--1-----5-----1-----
A|--1-----5-----1-----
E|--1-----5-----1-----

Stave 4:

E|--------------1-----------------------1--
B|--------1--3-----3--------------1--3-----
G|--3--3--------------------3--3-----------
D|-----------------------------------------
A|-----------------------------------------
E|-----------------------------------------

Stave 5:

E|-----------------------
B|-----------------------
G|--3--------------------
D|--3-----1-----5-----1--
A|--1-----1-----5-----1--
E|--------1-----5-----1--

Stave 6:

E|--10---------8---------------------------------------------13---------11---------10---------8------
B|------11--------11-----11-----10--11-----11-----10--11---------11---------11---------11--------11--
G|---------------------------------------------------------------------------------------------------
D|---------------------------------------------------------------------------------------------------
A|---------------------------------------------------------------------------------------------------
E|---------------------------------------------------------------------------------------------------

Stave 7:

E|--------------
B|--------------
G|--3-----------
D|--3--3--5--1--
A|--1--3--5--1--
E|-----3--5--1--

Stave 8:

E|-----------------------------------------------------------------
B|-----------------------------------------------------------------
G|-----------------------------------------------------------------
D|-----7--8--------7--8--10-----7--8-----------7--8--10--12p10--8--
A|--8-----------8------------8--------------8----------------------
E|-----------------------------------------------------------------

Stave 9:

E|--------
B|--------
G|--3--2--
D|--3--3--
A|--------
E|--------

Stave 10:

E|--1--------------------1-----------3--1-----1-----------------------------1--5--6-----
B|-----3--1-----1-----------3--1-----------------3--1-----------------1--3--------------
G|-----------3-----3--------------3--------------------3--0--3-----3--------------------
D|--------------------------------------------------------------------------------------
A|--------------------------------------------------------------------------------------
E|--------------------------------------------------------------------------------------

Stave 11:

E|--------------------------------------------
B|--------------------------------------------
G|--------------3-----------------------------
D|--0-----1-----3-----3-----5-----1-----3--3--
A|--0-----1-----1-----3-----5-----1-----3--3--
E|--0-----1-----------3-----5-----1-----3--3--

Stave 12:

E|------------------------------------------
B|-----------------------3------------------
G|--3--2-----5--3-----------3-----2h3p2-----
D|--3--3-----3--3--------3--3------------3--
A|------------------------------------------
E|------------------------------------------

http://www.guitartabcreator.com
Guitar Tab Creator is intended to store guitar tab created through the tool. It currently does not support in-line text editing. Any text you place in here will be lost. If you need to comment on your tab, please use the "Tab Notes" section located below.