Sound will begin in 5 seconds

Can't Kick Up The Roots

Chords
01234567891011121314151617181920212223
E
B
G
D
A
E
B
0 1 2 3 4 5 6 7 8 9 10 11 12 13 14 15 16 17 18 19 20 21 22 23
Song Science #1: How Pros Use 6 Chords to Write Hit Songs
(/) Slide Up  (\) Slide Down  (h) Hammer On  (p) Pull Off  (b) Bend (r) Release (v) Vibrato

Stave 1:

E|--------|--------------|-----------|--------------|--------------
B|--------|--------------|-----------|--------------|--------------
G|--------|--------------|-----------|--------------|--------------
D|--1--1--|--1--8--6--6--|--6--8--1--|--1--8--6--6--|--6--5--6--8--
A|--1--1--|--1--8--6--6--|--6--8--1--|--1--8--6--6--|--6--5--6--8--
D|--1--1--|--1--8--6--6--|--6--8--1--|--1--8--6--6--|--6--5--6--8--

Stave 2:

E|--------|--------------|--------------|------------------
B|--------|--------------|--------------|------------------
G|--------|--------------|--------------|------------------
D|--1--1--|--1--8--6--6--|--6--8--1--1--|--1--8--10--8--6--
A|--1--1--|--1--8--6--6--|--6--8--1--1--|--1--8--10--8--6--
D|--1--1--|--1--8--6--6--|--6--8--1--1--|--1--8--10--8--6--

Stave 3:

E|-----
B|--4--
G|--3--
D|-----
A|-----
D|-----

Stave 4:

E|-----
B|--4--
G|--3--
D|--1--
A|-----
D|-----

Stave 5:

E|-----6--|-----6--3--
B|--4-----|--4--------
G|--------|-----------
D|--------|-----------
A|--------|-----------
D|--------|-----------

Stave 6:

E|---------------------
B|---------------------
G|---------------------
D|--10--8--6--5--6--8--
A|--10--8--6--5--6--8--
D|--10--8--6--5--6--8--

Stave 7:

E|---------------|---------------------
B|---------------|---------------------
G|---------------|---------------------
D|--10--8--6--1--|--10--8--6--5--6--8--
A|--10--8--6--1--|--10--8--6--5--6--8--
D|--10--8--6--1--|--10--8--6--5--6--8--

Stave 8:

E|--6-----------------------|--6-----3-----------------
B|-----4--3--4--3--4--3--4--|-----4-----4-----6--6--4--
G|--------------------------|--------------------------
D|--------------------------|--------------------------
A|--------------------------|--------------------------
D|--------------------------|--------------------------

Stave 9:

E|------------------
B|------------------
G|------------------
D|--1--6--10--8-----
A|--1--6--10--8-----
D|--1--6--10--8-----

Stave 10:

E|--6-----------------------|--6-----------------------------------
B|-----4--3--4--3--4--3--4--|-----4--3--4--3--4-----3h4--3h4--4/6--
G|--------------------------|--------------------------------------
D|--------------------------|--------------------------------------
A|--------------------------|--------------------------------------
D|--------------------------|--------------------------------------

Stave 11:

E|--6-----3-----------------|--------------------------------------3----------------------|---------
B|-----4-----4--3--4--3--4--|--4--4--3--3--6--6--3--3--4--4--3--3-----4-----4--3--6--3h4--|--4h6p4--
G|--------------------------|-------------------------------------------------------------|---------
D|--------------------------|-------------------------------------------------------------|---------
A|--------------------------|-------------------------------------------------------------|---------
D|--------------------------|-------------------------------------------------------------|---------

Stave 12:

E|--------------|-----------
B|--------------|-----------
G|--5--8--------|-----------
D|--5--8--8--6--|-----6--8--
A|--3--6--8--6--|--3--6--8--
D|--------8--6--|--3--6--8--

Stave 13:

E|------------------------------|-----
B|------------------------------|-----
G|------------------------------|--5--
D|--10--6--1-----1--3-----3--1--|--5--
A|--10--6--1-----1--3-----3--1--|--3--
D|--10--6--1-----1--3-----3--1--|-----

Stave 14:

E|----------------------|------------|----------------------------|-----------------
B|----------------------|------------|----------------------------|-----------------
G|--12--12--12--12--12--|--8--10--8--|--12--12--10--12--10--8--5--|--10--12--10--8--
D|----------------------|------------|----------------------------|-----------------
A|--10--10--10--10--10--|--6--8---6--|--10--10--8---10--8---6--3--|--8---10--8---6--
D|----------------------|------------|----------------------------|-----------------

Stave 15:

E|--------
B|--------
G|--------
D|--6--8--
A|--6--8--
D|--6--8--

Stave 16:

E|--------------
B|--------------
G|-----3--5-----
D|--1--3--5--6--
A|--1--1--3--6--
D|--1--------6--

Stave 17:

E|-----|----------------------
B|-----|----------------------
G|--8--|--8--7--13--12-----8--
D|-----|----------------------
A|--6--|--6--5--11--10-----6--
D|-----|----------------------

Stave 18:

E|------------------------------------
B|------------------------------------
G|--12--11--8-----7--8--10-----10--8--
D|------------------------------------
A|--10--8---6-----5--6--8------8---6--
D|------------------------------------

http://www.guitartabcreator.com
Guitar Tab Creator is intended to store guitar tab created through the tool. It currently does not support in-line text editing. Any text you place in here will be lost. If you need to comment on your tab, please use the "Tab Notes" section located below.