Sound will begin in 5 seconds

The Beach Is For Lovers (Not Lonely Losers)

Chords
01234567891011121314151617181920212223
E
B
G
D
A
E
B
0 1 2 3 4 5 6 7 8 9 10 11 12 13 14 15 16 17 18 19 20 21 22 23
Song Science #1: How Pros Use 6 Chords to Write Hit Songs
(/) Slide Up  (\) Slide Down  (h) Hammer On  (p) Pull Off  (b) Bend (r) Release (v) Vibrato

Stave 1:

E|---------------------------------------------------------
B|---------------------------------------------------------
G|---------------------------------------------------------
D|--2h4p2--------2h4p2-----------------------2h4p2---------
A|---------4------------4--4--2--2--0--0------------4/2p0--
D|---------------------------------------------------------

Stave 2:

E|--------------------------------------------------------------------------
B|--------------------------------------------------------------------------
G|-----2--------2-----------2--------2--------2--------2--------2--------2--
D|--------2--2-----------------2--2--------------2--2--------------2--2-----
A|--0-----------------------------------------------------------------------
D|-----------------------4-----------------2-----------------0--------------

Stave 3:

E|-----------------------
B|-----------------------
G|--2--------------------
D|--2-----4-----2-----0--
A|--0-----4-----2-----0--
D|--------4-----2-----0--

Stave 4:

E|---------------------------------------------------------
B|---------------------------------------------------------
G|--9--11--9-----6-----4--6--4-----------------------------
D|---------------------------------------------------------
A|--7--9---7-----4-----2--4--2-----0h2h4-----4p2p0--4p2p0--
D|---------------------------------------------------------

Stave 5:

E|-------------------------------------
B|-------------------------------------
G|-----4--6--9-----------4--6--13--14--
D|-------------------------------------
A|--0--2--4--7--------0--2--4--11--12--
D|-------------------------------------

Stave 6:

E|--9------|--7------|--------|---------
B|-----10--|-----10--|--9-----|--10-----
G|---------|---------|-----9--|------9--
D|---------|---------|--------|---------
A|---------|---------|--------|---------
D|---------|---------|--------|---------

Stave 7:

E|-----|-----------
B|-----|-----------
G|--2--|--2--------
D|--2--|--2--4--2--
A|--0--|--0--4--2--
D|-----|-----4--2--

Stave 8:

E|--9--9--9--12--12--12--12--7--7--7--7--4/5--4/5--
B|-------------------------------------------------
G|-------------------------------------------------
D|-------------------------------------------------
A|-------------------------------------------------
D|-------------------------------------------------

Stave 9:

E|--------------|-----------------
B|--------------|-----------------
G|--------------|-----------------
D|-----------2--|-----------------
A|--0--2--4-----|--0--2--4--5--0--
D|--------------|-----------------

Stave 10:

E|--------------
B|--------------
G|--2-----------
D|--2--4--2--0--
A|--0--4--2--0--
D|-----4--2--0--

Stave 11:

E|----------------|----------------|------------------------
B|----------------|------------17--|------------------------
G|----------------|----------------|------------------------
D|--14h16p14------|--14h16p14------|--14h16p14--------------
A|------------16--|----------------|------------16--14--12--
D|----------------|----------------|------------------------

Stave 12:

E|-----
B|-----
G|--2--
D|--2--
A|--0--
D|-----

Stave 13:

E|--------|--------|------------------------|--12------|--14--|--7------|--9--|--------|-----------
B|--9-----|--9-----|-----9-----------9--10--|------10--|------|-----10--|-----|--9-----|-----9-----
G|-----9--|-----9--|--9-----9-----9---------|----------|------|---------|-----|-----9--|--9-----9--
D|--------|--------|------------------------|----------|------|---------|-----|--------|-----------
A|--------|--------|------------------------|----------|------|---------|-----|--------|-----------
D|--------|--------|------------------------|----------|------|---------|-----|--------|-----------

Stave 14:

E|------------
B|-----9--10--
G|--9---------
D|------------
A|------------
D|------------

http://www.guitartabcreator.com
Guitar Tab Creator is intended to store guitar tab created through the tool. It currently does not support in-line text editing. Any text you place in here will be lost. If you need to comment on your tab, please use the "Tab Notes" section located below.