Sound will begin in 5 seconds

2S Bad Impressions (Paranoid Nightmare)

Chords
01234567891011121314151617181920212223
E
B
G
D
A
E
B
0 1 2 3 4 5 6 7 8 9 10 11 12 13 14 15 16 17 18 19 20 21 22 23
Song Science #1: How Pros Use 6 Chords to Write Hit Songs
(/) Slide Up  (\) Slide Down  (h) Hammer On  (p) Pull Off  (b) Bend (r) Release (v) Vibrato

Stave 1:

E|----------------------------------------|----------------------------|--10b12--10b12--
B|-----------------9v-----------------9v--|-----------9v-----------9v--|--9--11--9--11--
G|------------8b8----------------8b8------|--8--8--8------8--8--8------|----------------
D|--6b6--7b7-----------6b6--7b7-----------|--6--6--6------6--6--6------|----------------
A|----------------------------------------|----------------------------|----------------
E|----------------------------------------|----------------------------|----------------

Stave 2:

E|--7-------7\9--9b10v------11------12--12--------------------------------------------------
B|--6v--6v--6-----------10------11----------13-----------------------------------15v--v--v--
G|----------------------------------------------14--14b16v--16v--15--16--15--16-------------
D|------------------------------------------------------------------------------------------
A|------------------------------------------------------------------------------------------
E|------------------------------------------------------------------------------------------

http://www.guitartabcreator.com
Guitar Tab Creator is intended to store guitar tab created through the tool. It currently does not support in-line text editing. Any text you place in here will be lost. If you need to comment on your tab, please use the "Tab Notes" section located below.