Sound will begin in 5 seconds

2-F A Stroll around the fretboard

Chords
01234567891011121314151617181920212223
E
B
G
D
A
E
B
0 1 2 3 4 5 6 7 8 9 10 11 12 13 14 15 16 17 18 19 20 21 22 23
Song Science #1: How Pros Use 6 Chords to Write Hit Songs
(/) Slide Up  (\) Slide Down  (h) Hammer On  (p) Pull Off  (b) Bend (r) Release (v) Vibrato

Stave 1:

E|--3--3--3\5--5--5\7--7--7\9--9\12/9-7--|--7-----------------|--
B|--3--3--3-5--5--5-7--7--7-9--9-12-9/7--|-----8--------------|--
G|---------------------------------------|--------7-----------|--
D|---------------------------------------|-----------8--------|--
A|---------------------------------------|--------------7-----|--
E|---------------------------------------|-----------------6--|--

Stave 2:

E|---------------------------------------------3--
B|------------------------------------------2-----
G|-----------7b9-----------9b3-----------3--------
D|------------------------------------2-----------
A|--7--7--7-------9--9--9----------3--------------
E|--6--6--6-------8--8--8-------2-----------------

http://www.guitartabcreator.com
Guitar Tab Creator is intended to store guitar tab created through the tool. It currently does not support in-line text editing. Any text you place in here will be lost. If you need to comment on your tab, please use the "Tab Notes" section located below.