Sound will begin in 5 seconds

1S Darts Alternate

Chords
01234567891011121314151617181920212223
E
B
G
D
A
E
B
0 1 2 3 4 5 6 7 8 9 10 11 12 13 14 15 16 17 18 19 20 21 22 23
Song Science #1: How Pros Use 6 Chords to Write Hit Songs
(/) Slide Up  (\) Slide Down  (h) Hammer On  (p) Pull Off  (b) Bend (r) Release (v) Vibrato

Stave 1:

E|--7--7--7--7--7--7--7-----7--7--7--7--7--7--8--9-----7--7--7--7--7--7--7-----7--7--7--7--7--7--6--5-----
B|--7--7--7--7--7--7--7-----7--7--7--7--7--7--8--9-----7--7--7--7--7--7--7-----7--7--7--7--7--7--6--5-----
G|-----------------x--x--------------------x--x--x--------------------x--x--------------------x--x--x-----
D|-----------------x--x--------------------x--x--x--------------------x--x--------------------x--x--x-----
A|-----------------x--x--------------------x--x--x--------------------x--x--------------------x--x--x-----
E|--6--6--6--6--6--6--6-----6--6--6--6--6--6--7--8-----6--6--6--6--6--6--6-----6--6--6--6--6--6--5--4-----

Stave 2:

E|------------------------------------------------------------------------------------------------------------
B|------------------------------------------------------------------------------------------------------------
G|------------------------------------------------------------------------------------------------------------
D|------------------------------------------------------------------------------------------------------------
A|--3-0--7-0--12-0--14-----14--14-----14--14--14-----5--x--5--5-----5--5--5-----14-----14--14-----14--14--14--
E|--3-0--7-0--12-0--12-----12--12-----12--12--12-----3--x--3--3-----3--3--3-----12-----12--12-----12--12--12--

Stave 3:

E|-------------------------------------------------------------------
B|-------------------------------------------------------------------
G|-------------------------------------------------------------------
D|-------------------------------------------------------------------
A|--11-----11--11-----11--11--11-----7--0--7--0-----5--0-------------
E|--9------9---9------9---9---9------5--0--5--0-----3--0-----1v--b0--

http://www.guitartabcreator.com
Guitar Tab Creator is intended to store guitar tab created through the tool. It currently does not support in-line text editing. Any text you place in here will be lost. If you need to comment on your tab, please use the "Tab Notes" section located below.