Sound will begin in 5 seconds

1S Big Bad Muffy Monkey

Chords
01234567891011121314151617181920212223
E
B
G
D
A
E
B
0 1 2 3 4 5 6 7 8 9 10 11 12 13 14 15 16 17 18 19 20 21 22 23
Song Science #1: How Pros Use 6 Chords to Write Hit Songs
(/) Slide Up  (\) Slide Down  (h) Hammer On  (p) Pull Off  (b) Bend (r) Release (v) Vibrato

Stave 1:

E|--------------------------------------------------------------
B|--------------------------------------------------------------
G|--------------------------------------------------------------
D|-----5--------------------5--------------------5-----------7--
A|--7-----7--5--7--------7-----7--5--7--------7-----7--5--7-----
E|-----------------6--5-----------------6--5--------------------

Stave 2:

E|--------------------------------------------------
B|--------------------------------------------------
G|--------------------------------------------------
D|--------------------------------------------------
A|--0--5--5--0------0--5--5--0------0--5--5--0------
E|--0--3--0--3--9v--0--3--0--3--9v--0--3--0--3--9v--

Stave 3:

E|------------------------------------------------------------------------------------5--3v--
B|-----3--------------------3--------------------3-----------5--3v--3--5--3--5--3--5---------
G|--5-----5--3--5--------5-----5--3--5--------5-----5--3--5----------------------------------
D|-----------------4--3-----------------4--3-------------------------------------------------
A|-------------------------------------------------------------------------------------------
E|-------------------------------------------------------------------------------------------

Stave 4:

E|--------------------5--3v--3-------------------------9--7v--------------------9--7v--------
B|--3--5--3--5--3--5------------4\8--7--9--7--9--7--9---------7--9--7--9--7--9---------8--0--
G|----------------------------------------------------------------------------------------0--
D|----------------------------------------------------------------------------------------0--
A|-------------------------------------------------------------------------------------------
E|-------------------------------------------------------------------------------------------

Stave 5:

E|-------------------------------------------------------------------------------------------------
B|-------------------------------------------------------------------------------------------------
G|--10--10--10--6--4--8--8--8--6--4--13--13--13--10--13--6--4--4--4--8--4--6--4--6--6--4--8--8--0--
D|--8---8---8---4--2--6--6--6--4--2--11--11--11--8---11--4--2--2--2--6--2--4--2--4--4--2--6--6--0--
A|-------------------------------------------------------------------------------------------------
E|-------------------------------------------------------------------------------------------------

Stave 6:

E|---------------------------------------------------------------------------------------------------------
B|---------------------------------------------------------------------------------------------------------
G|--0--5--5--0--0--5--5--0--0--5--5--0--0-----3--------------------3--------------------3-----------5--3v--
D|--0--3--0--3--0--3--0--3--0--3--0--3--0--5-----5--3--5--------5-----5--3--5--------5-----5--3--5---------
A|--------------------------------------------------------4--3-----------------4--3------------------------
E|---------------------------------------------------------------------------------------------------------

Stave 7:

E|----------------------------------------------------
B|--------------------5--3v--------------------5--3v--
G|--3--5--3--5--3--5---------3--5--3--5--3--5---------
D|----------------------------------------------------
A|----------------------------------------------------
E|----------------------------------------------------

Stave 8:

E|---------------------------------------
B|--0--5--5--0--0--5--5--0--0--5--0------
G|--0--3--0--3--0--3--0--3--0--0--3--7v--
D|---------------------------------------
A|---------------------------------------
E|---------------------------------------

http://www.guitartabcreator.com
Guitar Tab Creator is intended to store guitar tab created through the tool. It currently does not support in-line text editing. Any text you place in here will be lost. If you need to comment on your tab, please use the "Tab Notes" section located below.