Sound will begin in 5 seconds

LDIK

01234567891011121314151617181920212223
E
B
G
D
A
E
B
0 1 2 3 4 5 6 7 8 9 10 11 12 13 14 15 16 17 18 19 20 21 22 23
Song Science #1: How Pros Use 6 Chords to Write Hit Songs
(/) Slide Up  (\) Slide Down  (h) Hammer On  (p) Pull Off  (b) Bend (r) Release (v) Vibrato

Stave 1:

E|-----------------------------------------|-----------------------------------------|-----------
B|-----------------------------------------|-----------------------------------------|-----------
G|--------------------8--8--8--9--8--9--8--|--------------------8--8--8--9--8--9--8--|--6--6--6--
D|--9--9--9--9--9--9-----------------------|--9--9--9--9--9--9-----------------------|-----------
A|-----------------------------------------|-----------------------------------------|-----------
E|-----------------------------------------|-----------------------------------------|-----------

Stave 2:

E|--------------------------------------------------------------------
B|--------------------------------------------------------------------
G|--6--6--6--------------------------------------------------------8--
D|-----------6--6--6--6--6--6--8--8--8--8--8--8--9--9--9--9--9--9-----
A|--------------------------------------------------------------------
E|--------------------------------------------------------------------

Stave 3:

E|------------
B|--12\4h5p4--
G|------------
D|------------
A|------------
E|------------

Stave 4:

E|------------------|------------------------|----------------------------------------------------------
B|------------------|------------------------|------------------------------17--16--16--16--16--16--12--
G|--4--6--8--9--11--|--11--8--8--8--8--9--8--|--11--13--15--16--18--16--15------------------------------
D|------------------|------------------------|----------------------------------------------------------
A|------------------|------------------------|----------------------------------------------------------
E|------------------|------------------------|----------------------------------------------------------

Stave 5:

E|-------------------------------|----------------------------------------------------
B|------------------------9------|----------------------------------------------------
G|--4--6--8--9--11--9--8-----11--|--11--11--11--11--11--8--8--9--8--11--11--13--9--8--
D|-------------------------------|----------------------------------------------------
A|-------------------------------|----------------------------------------------------
E|-------------------------------|----------------------------------------------------

Stave 6:

E|------12------12--11--11--|------12------12--11--11--|-----------------------------------------------|--
B|--12------12--------------|--12------12--------------|--12/14--12--14/16--14--16/17--17--19--17--16--|--
G|--------------------------|--------------------------|-----------------------------------------------|--
D|--------------------------|--------------------------|-----------------------------------------------|--
A|--------------------------|--------------------------|-----------------------------------------------|--
E|--------------------------|--------------------------|-----------------------------------------------|--

Stave 7:

E|--------------
B|--------------
G|--16--15------
D|----------13--
A|--------------
E|--------------

Stave 8:

E|--
B|--
G|--
D|--
A|--
E|--

http://www.guitartabcreator.com
Guitar Tab Creator is intended to store guitar tab created through the tool. It currently does not support in-line text editing. Any text you place in here will be lost. If you need to comment on your tab, please use the "Tab Notes" section located below.