Sound will begin in 5 seconds

JB Solo 1

01234567891011121314151617181920212223
E
B
G
D
A
E
B
0 1 2 3 4 5 6 7 8 9 10 11 12 13 14 15 16 17 18 19 20 21 22 23
Song Science #1: How Pros Use 6 Chords to Write Hit Songs
(/) Slide Up  (\) Slide Down  (h) Hammer On  (p) Pull Off  (b) Bend (r) Release (v) Vibrato

Stave 1:

E|-----------------------------------------------
B|-----------------------------------------------
G|-2-2-------------------------------------------
D|-----0h3-----------------5---7p5---5-----5-7b8-
A|---------5b3---------5-7---7-----7---7-5-------
E|-------------5b3-6\7---------------------------

Stave 2:

E|--------------------------------10b10-6h7-------------------------------
B|-----8---8---8---8---8h11p8---8-----------8-6---------------------------
G|-0/9---9---9---9---9--------9-----------------7-6-3h4-------------------
D|------------------------------------------------------5-3---------------
A|----------------------------------------------------------5-4-0h1-------
E|------------------------------------------------------------------3-1-3-

Stave 3:

E|------8-10-8----------------------------------------------------------------------
B|-8-11--------11-8----11-8------8--------------------------------------------------
G|------------------10------10-7---10-7----10-7------7------------------------------
D|--------------------------------------10------10-8---10-8-7-10-8-7----8-7---------
A|-------------------------------------------------------------------10-----10-8-10-
E|----------------------------------------------------------------------------------

Stave 4:

E|-----------------------------------------10----10-------
B|--------------------------------------------11----11----
G|-4-0-4-0-5-0-5-0-6-0-6-0-7-0-7-0-9-0-9-0-------------12-
D|--------------------------------------------------------
A|--------------------------------------------------------
E|--------------------------------------------------------

http://www.guitartabcreator.com
Guitar Tab Creator is intended to store guitar tab created through the tool. It currently does not support in-line text editing. Any text you place in here will be lost. If you need to comment on your tab, please use the "Tab Notes" section located below.