midnight rendezvous

01234567891011121314151617181920212223
E
B
G
D
A
E
B
0 1 2 3 4 5 6 7 8 9 10 11 12 13 14 15 16 17 18 19 20 21 22 23
(/) Slide Up  (\) Slide Down  (h) Hammer On  (p) Pull Off  (b) Bend (r) Release (v) Vibrato

Stave 1:

E|---------17--17--17--17--17--17--17--17--17--17h18p17--------------------------------17h18p17--
B|--18/19----------------------------------------------------------------------------------------
G|-------------------------------------------------------14h15p14------------14h15p14------------
D|-----------------------------------------------------------------------------------------------
A|-----------------------------------------------------------------12h13p12----------------------
E|-----------------------------------------------------------------------------------------------

Stave 2:

E|--------------------7--9b9--------------------------------------14b18--13b17--12b16--14b14h12---------12------
B|-----------------8----------------11b11--------------------------------------------------------14b14------12--
G|--------------9----------------------------------15b15--11--12------------------------------------------------
D|-------8--11----------------8--9------------------------------------------------------------------------------
A|--8/9------------------------------------13--14---------------------------------------------------------------
E|--------------------------------------------------------------------------------------------------------------

Stave 3:

E|--14/17--14--------------------------------------5--9--14----------11--14--15------
B|-------------15-------------------------------5------------11--12--------------12--
G|-----------------14--11--7-----------------6---------------------------------------
D|----------------------------8-----------7------------------------------------------
A|-------------------------------9--6--7---------------------------------------------
E|-----------------------------------------------------------------------------------

Stave 4:

E|--14--12--14--19--------------------------14------------------------------------------------------------12--15b15--
B|--------------------------15--14-----------------16--13---------------------------------------------12-------------
G|------------------15--16----------16--15-----------------14--12--11---------------------12--13--15-----------------
D|---------------------------------------------------------------------13-------------14-----------------------------
A|-------------------------------------------------------------------------15--13h14---------------------------------
E|-------------------------------------------------------------------------------------------------------------------

Stave 5:

E|--14/18--17--15--14--17-----15--14-----15--17--19--15--------------------------------------
B|-------------------------------------------------------17----------------------------------
G|-----------------------------------------------------------18--16----------------------16--
D|-------------------------------------------------------------------17----------14--17------
A|-----------------------------------------------------------------------19--16--------------
E|-------------------------------------------------------------------------------------------

Stave 6:

E|--------------10--9--8--6/7-----------------------7--11--14--12------------------------12--14--17--15h14h15--17--
B|--------7--8--------------------7--4h5---------7-----------------12----------------12----------------------------
G|-----9----------------------------------7h6p7------------------------12/11\12--12--------------------------------
D|--8--------------------------------------------------------------------------------------------------------------
A|-----------------------------------------------------------------------------------------------------------------
E|-----------------------------------------------------------------------------------------------------------------

Stave 7:

E|--17b17--18--18--18--18--18b17--15--20b21--
B|-------------------------------------------
G|-------------------------------------------
D|-------------------------------------------
A|-------------------------------------------
E|-------------------------------------------

							http://www.guitartabcreator.com
Chords

Instruments
{"strings":[[[".",".",".",17,17,17,17,17,17,17,17,17,17,"h",18,"p",17,".",".",".",".",".",".",".",".",".",".",".",".",".",".",".",17,"h",18,"p",17],[18,"/",19,".",".",".",".",".",".",".",".",".",".",".",".",".",".",".",".",".",".",".",".",".",".",".",".",".",".",".",".",".",".",".",".",".","."],[".",".",".",".",".",".",".",".",".",".",".",".",".",".",".",".",".",14,"h",15,"p",14,".",".",".",".",".",14,"h",15,"p",14,".",".",".",".","."],[".",".",".",".",".",".",".",".",".",".",".",".",".",".",".",".",".",".",".",".",".",".",".",".",".",".",".",".",".",".",".",".",".",".",".",".","."],[".",".",".",".",".",".",".",".",".",".",".",".",".",".",".",".",".",".",".",".",".",".",12,"h",13,"p",12,".",".",".",".",".",".",".",".",".","."],[".",".",".",".",".",".",".",".",".",".",".",".",".",".",".",".",".",".",".",".",".",".",".",".",".",".",".",".",".",".",".",".",".",".",".",".","."]],[[".",".",".",".",".",".",".",7,9,"b",9,".",".",".",".",".",".",".",".",".",".",".",".",14,"b",18,13,"b",17,12,"b",16,14,"b",14,"h",12,".",".",".",12,"."],[".",".",".",".",".",".",8,".",".",".",".",".",".",11,"b",11,".",".",".",".",".",".",".",".",".",".",".",".",".",".",".",".",".",".",".",".",".",14,"b",14,".",12],[".",".",".",".",".",9,".",".",".",".",".",".",".",".",".",".",".",".",15,"b",15,11,12,".",".",".",".",".",".",".",".",".",".",".",".",".",".",".",".",".",".","."],[".",".",".",8,11,".",".",".",".",".",".",8,9,".",".",".",".",".",".",".",".",".",".",".",".",".",".",".",".",".",".",".",".",".",".",".",".",".",".",".",".","."],[8,"/",9,".",".",".",".",".",".",".",".",".",".",".",".",".",13,14,".",".",".",".",".",".",".",".",".",".",".",".",".",".",".",".",".",".",".",".",".",".",".","."],[".",".",".",".",".",".",".",".",".",".",".",".",".",".",".",".",".",".",".",".",".",".",".",".",".",".",".",".",".",".",".",".",".",".",".",".",".",".",".",".",".","."]],[[14,"/",17,14,".",".",".",".",".",".",".",".",".",".",".",5,9,14,".",".",11,14,15,"."],[".",".",".",".",15,".",".",".",".",".",".",".",".",".",5,".",".",".",11,12,".",".",".",12],[".",".",".",".",".",14,11,7,".",".",".",".",".",6,".",".",".",".",".",".",".",".",".","."],[".",".",".",".",".",".",".",".",8,".",".",".",7,".",".",".",".",".",".",".",".",".",".","."],[".",".",".",".",".",".",".",".",".",9,6,7,".",".",".",".",".",".",".",".",".",".",".","."],[".",".",".",".",".",".",".",".",".",".",".",".",".",".",".",".",".",".",".",".",".",".",".","."]],[[14,12,14,19,".",".",".",".",".",".",14,"_",".",".",".",".",".",".",".",".",".",".",".",".",".",".",".",12,15,"b",15],[".",".",".",".",".",".",15,14,".",".",".","_",16,13,".",".",".",".",".",".",".",".",".",".",".",".",12,".",".",".","."],[".",".",".",".",15,16,".",".",16,15,".","_",".",".",14,12,11,".",".",".",".",".",".",12,13,15,".",".",".",".","."],[".",".",".",".",".",".",".",".",".",".",".","_",".",".",".",".",".",13,".",".",".",".",14,".",".",".",".",".",".",".","."],[".",".",".",".",".",".",".",".",".",".",".","_",".",".",".",".",".",".",15,13,"h",14,".",".",".",".",".",".",".",".","."],[".",".",".",".",".",".",".",".",".",".",".","_",".",".",".",".",".",".",".",".",".",".",".",".",".",".",".",".",".",".","."]],[[14,"/",18,17,15,14,17,"_",15,14,"_",15,17,19,15,".",".",".",".",".",".",".",".","."],[".",".",".",".",".",".",".","_",".",".","_",".",".",".",".",17,".",".",".",".",".",".",".","."],[".",".",".",".",".",".",".","_",".",".","_",".",".",".",".",".",18,16,".",".",".",".",".",16],[".",".",".",".",".",".",".","_",".",".","_",".",".",".",".",".",".",".",17,".",".",14,17,"."],[".",".",".",".",".",".",".","_",".",".","_",".",".",".",".",".",".",".",".",19,16,".",".","."],[".",".",".",".",".",".",".","_",".",".","_",".",".",".",".",".",".",".",".",".",".",".",".","."]],[[".",".",".",".",10,9,8,6,"/",7,"_",".",".",".",".",".",".",".",".",".",".",7,11,14,12,".",".",".",".",".",".",".",".",12,14,17,15,"h",14,"h",15,17],[".",".",7,8,".",".",".",".",".",".","_",7,4,"h",5,".",".",".",".",".",7,".",".",".",".",12,".",".",".",".",".",".",12,".",".",".",".",".",".",".",".","."],[".",9,".",".",".",".",".",".",".",".","_",".",".",".",".",7,"h",6,"p",7,".",".",".",".",".",".",12,"/",11,"\\",12,12,".",".",".",".",".",".",".",".",".","."],[8,".",".",".",".",".",".",".",".",".","_",".",".",".",".",".",".",".",".",".",".",".",".",".",".",".",".",".",".",".",".",".",".",".",".",".",".",".",".",".",".","."],[".",".",".",".",".",".",".",".",".",".","_",".",".",".",".",".",".",".",".",".",".",".",".",".",".",".",".",".",".",".",".",".",".",".",".",".",".",".",".",".",".","."],[".",".",".",".",".",".",".",".",".",".","_",".",".",".",".",".",".",".",".",".",".",".",".",".",".",".",".",".",".",".",".",".",".",".",".",".",".",".",".",".",".","."]],[[17,"b",17,18,18,18,18,18,"b",17,15,20,"b",21],[".",".",".",".",".",".",".",".",".",".",".",".",".","."],[".",".",".",".",".",".",".",".",".",".",".",".",".","."],[".",".",".",".",".",".",".",".",".",".",".",".",".","."],[".",".",".",".",".",".",".",".",".",".",".",".",".","."],[".",".",".",".",".",".",".",".",".",".",".",".",".","."]]],"numberofstrings":6,"notes":["E","B","G","D","A","E","B"],"capo":0,"stringnotes":["E4","B3","G3","D3","A2","E2"],"comments":["Stave 1:","Stave 2:","Stave 3:","Stave 4:","Stave 5:","Stave 6:","Stave 7:"],"timing":[["W",null,"W","W","W","W","W","W","W","W","W","W","W",null,"W",null,"W","W",null,"W",null,"W","W",null,"W",null,"W","W",null,"W",null,"W","W",null,"W",null,"W"],["W",null,"W","W","W","W","W","W","W",null,"W","W","W","W",null,"W","W","W","W",null,"W","W","W","W","W","W","W","W","W","W",null,"W","W",null,"W","W","W","W","W","W","W","W"],["W",null,"W","W","W","W","W","W","W","W","W","W","W","W","W","W","W","W","W","W","W","W","W","W"],["W","W","W","W","W","W","W","W","W","W","W",null,"W","W","W","W","W","W","W","W",null,"W","W","W","W","W","W","W","W",null,"W"],["W",null,"W","W","W","W","W",null,"W","W","W","W","W","W","W","W","W","W","W","W","W","W","W","W"],["W","W","W","W","W","W","W","W",null,"W",null,"W","W",null,"W","W",null,"W","W","W","W","W","W","W","W","W","W",null,"W","W","W","W","W","W","W","W","W",null,"W",null,"W","W"],["W",null,"W","W","W","W","W","W",null,"W","W","W",null,"W"]],"timingvisible":false,"tabcounter":14,"stave":6,"totalstaves":7,"instrument":"6guitar","selectedtuning":"6_standard","version":"13"}

Member for

4 months 1 week
Submitted by bl4ckck on Fri, 2020-11-27 00:55