Sound will begin in 5 seconds

Can - The Empress and the Ukraine King

01234567891011121314151617181920212223
E
B
G
D
A
E
B
0 1 2 3 4 5 6 7 8 9 10 11 12 13 14 15 16 17 18 19 20 21 22 23
Song Science #1: How Pros Use 6 Chords to Write Hit Songs
(/) Slide Up  (\) Slide Down  (h) Hammer On  (p) Pull Off  (b) Bend (r) Release (v) Vibrato

Stave 1:

G|--10/11--14---------------------------------------------------------
D|-------------10--11--13--14----------14--13------11-----------------
A|-----------------------------11--12----------12------12--10--12--0--
E|--------------------------------------------------------------------

Stave 2:

G|--------------------------|--
D|--------7-----------4-----|--
A|-----------5--7--7-----7--|--
E|--5-----------------------|--

Stave 3:

G|--6-----6--------6-----6--------|--4-----4--------4-----4--------
D|-----7--------------7-----------|-----6--------------6-----------
A|-----------7--7-----------7--7--|-----------6--6-----------6--6--
E|--------------------------------|--------------------------------

Stave 4:

G|--------------------------|----------------6h7--------------
D|--------7-----------4-----|-----7-----7/9-------4-----4-----
A|-----------5--7--7-----7--|------------------------7-----7--
E|--5-----------------------|--5-----5------------------------

Stave 5:

G|----------------------------------------------
D|-----7--9--11---------------------------------
A|-----------------------9------10------10------
E|--5------------10--10-----10------10------10--

http://www.guitartabcreator.com
Guitar Tab Creator is intended to store guitar tab created through the tool. It currently does not support in-line text editing. Any text you place in here will be lost. If you need to comment on your tab, please use the "Tab Notes" section located below.