Sound will begin in 5 seconds

Brian Eno - Sky Saw

01234567891011121314151617181920212223
E
B
G
D
A
E
B
0 1 2 3 4 5 6 7 8 9 10 11 12 13 14 15 16 17 18 19 20 21 22 23
Song Science #1: How Pros Use 6 Chords to Write Hit Songs
(/) Slide Up  (\) Slide Down  (h) Hammer On  (p) Pull Off  (b) Bend (r) Release (v) Vibrato

Stave 1:

G|------------------------------|-----------------------------5h6--|----------------------------------|--
D|-----------7------------------|-----------7-----0--7--7--7-------|-----------------2--2/3-----------|--
A|------------------------------|----------------------------------|-------------------------4-----5--|--
D|--0--7--7-----------7--7\6/7--|--0--7--7-------------------------|--------0--2--2-------------------|--

Stave 2:

G|--------------15--12--13/14--11--12\11--|-----------------3/4--|--------------------------|--
D|-----------2----------------------------|-----------5----------|--------5--5--0--4--5--5--|--
A|----------------------------------------|----------------------|--------------------------|--
D|--0--2--2-------------------------------|--0--5--5-------------|--0--5--------------------|--

Stave 3:

G|-----------------------4/5--|-------------------------------
D|--9/13--------4-------------|--------------------2/3/5/6/7--
A|-----------------5----------|-----------5--5----------------
D|--------0--4----------------|--0--0--0----------------------

http://www.guitartabcreator.com
Guitar Tab Creator is intended to store guitar tab created through the tool. It currently does not support in-line text editing. Any text you place in here will be lost. If you need to comment on your tab, please use the "Tab Notes" section located below.