Sound will begin in 5 seconds

My sweeping solo.

01234567891011121314151617181920212223
E
B
G
D
A
E
B
0 1 2 3 4 5 6 7 8 9 10 11 12 13 14 15 16 17 18 19 20 21 22 23
Song Science #1: How Pros Use 6 Chords to Write Hit Songs
(/) Slide Up  (\) Slide Down  (h) Hammer On  (p) Pull Off  (b) Bend (r) Release (v) Vibrato

Stave 1:

E|--13--10---------------------------------17--13---------------------------------21--18-
B|----------11-------------------------15----------15-------------------------19--------\
G|--------------10-----------------14------------------14-----------------18-------------
D|------------------11---------15--------------------------15---------19-----------------
A|----------------------13/17----------------------------------17\21---------------------
E|---------------------------------------------------------------------------------------

Stave 2:

E|--------------------------------8--9--11\19--
B|----------------------9--8--11---------------
G|------------8--9--11-------------------------
D|--7--9--10-----------------------------------
A|---------------------------------------------
E|---------------------------------------------

Stave 3:

E|--------------------------------8--9--11\17--
B|----------------------8--9--11---------------
G|------------8--9--11-------------------------
D|--7--9--10-----------------------------------
A|---------------------------------------------
E|---------------------------------------------

Stave 4:

E|--------------------------------8--9--11\15--
B|----------------------8--11--9---------------
G|------------8--9--11-------------------------
D|--7--9--10-----------------------------------
A|---------------------------------------------
E|---------------------------------------------

Stave 5:

E|--------------------------------------15--16--18--
B|--------------------------15--16--18--------------
G|--------------14--15--17--------------------------
D|--14--15--17--------------------------------------
A|--------------------------------------------------
E|--------------------------------------------------

Stave 6:

E|--18--16--15--------------------------------------
B|--------------18--16--15--------------------------
G|--------------------------17--15--14--------------
D|--------------------------------------17--15--14--
A|--------------------------------------------------
E|--------------------------------------------------

Stave 7:

E|--
B|--
G|--
D|--
A|--
E|--

http://www.guitartabcreator.com
Guitar Tab Creator is intended to store guitar tab created through the tool. It currently does not support in-line text editing. Any text you place in here will be lost. If you need to comment on your tab, please use the "Tab Notes" section located below.