Sound will begin in 5 seconds

My solo #2

01234567891011121314151617181920212223
E
B
G
D
A
E
B
0 1 2 3 4 5 6 7 8 9 10 11 12 13 14 15 16 17 18 19 20 21 22 23
Song Science #1: How Pros Use 6 Chords to Write Hit Songs
(/) Slide Up  (\) Slide Down  (h) Hammer On  (p) Pull Off  (b) Bend (r) Release (v) Vibrato

Stave 1:

E|--------------------------------8--9\19--
B|----------------------8--9--11-----------
G|------------8--9--11---------------------
D|--7--9--10-------------------------------
A|-----------------------------------------
E|-----------------------------------------

Stave 2:

E|--------------------------------8--9--11--17--
B|----------------------8--9--11----------------
G|------------8--9--11--------------------------
D|--7--9--10------------------------------------
A|----------------------------------------------
E|----------------------------------------------

Stave 3:

E|--------------------------------8--9--11--15--
B|----------------------8--9--11----------------
G|------------8--9--11--------------------------
D|--7--9--10------------------------------------
A|----------------------------------------------
E|----------------------------------------------

Stave 4:

E|--8--8--9--11--
B|---------------
G|---------------
D|---------------
A|---------------
E|---------------

Stave 5:

E|--15--17--19--
B|--------------
G|--------------
D|--------------
A|--------------
E|--------------

Stave 6:

E|--19--15------------------
B|----------17--------------
G|--------------16----------
D|------------------17------
A|----------------------19--
E|--------------------------

Stave 7:

E|--13--15--17--
B|--------------
G|--------------
D|--------------
A|--------------
E|--------------

Stave 8:

E|--17--13------------------
B|----------15--------------
G|--------------14----------
D|------------------15------
A|----------------------17--
E|--------------------------

Stave 9:

E|--10--11--13--
B|--------------
G|--------------
D|--------------
A|--------------
E|--------------

Stave 10:

E|--13--10------------------
B|----------11--------------
G|--------------10----------
D|------------------11------
A|----------------------13--
E|--------------------------

Stave 11:

E|--10--17--13------------------
B|--------------15--------------
G|------------------14----------
D|----------------------15------
A|--------------------------17--
E|------------------------------

Stave 12:

E|----------------------17--19--21--
B|------------------19--------------
G|--------------18------------------
D|----------19----------------------
A|--17--21--------------------------
E|----------------------------------

Stave 13:

E|--20--18--17-------------------------------------
B|--------------20--18--17------------------------\
G|--------------------------20--18--17-------------
D|--------------------------------------18--20--17-
A|-------------------------------------------------
E|-------------------------------------------------

http://www.guitartabcreator.com
Guitar Tab Creator is intended to store guitar tab created through the tool. It currently does not support in-line text editing. Any text you place in here will be lost. If you need to comment on your tab, please use the "Tab Notes" section located below.