Sound will begin in 5 seconds

My Solo

01234567891011121314151617181920212223
E
B
G
D
A
E
B
0 1 2 3 4 5 6 7 8 9 10 11 12 13 14 15 16 17 18 19 20 21 22 23
Song Science #1: How Pros Use 6 Chords to Write Hit Songs
(/) Slide Up  (\) Slide Down  (h) Hammer On  (p) Pull Off  (b) Bend (r) Release (v) Vibrato

Stave 1:

E|--17--13------------------
B|----------15--------------
G|--------------14----------
D|------------------15------
A|----------------------17--
E|--------------------------

Stave 2:

E|-------------------------------------------------13--15--16--------------
B|-------------------------------------11--13--14--------------------------
G|--------------------------9--11--12--------------------------------------
D|----------------7--8--10-------------------------------------------------
A|------7--9--10-----------------------------------------------------------
E|--10---------------------------------------------------------10--10--10--

Stave 3:

E|--19--15-----------------
B|----------16-------------
G|--------------15---------
D|------------------16-----
A|----------------------18\
E|-------------------------

Stave 4:

E|-------------------------------------
B|------------------------------------\
G|--------------------------14--15--16-
D|--------------13--15--17-------------
A|--13--15--16-------------------------
E|-------------------------------------

http://www.guitartabcreator.com
Guitar Tab Creator is intended to store guitar tab created through the tool. It currently does not support in-line text editing. Any text you place in here will be lost. If you need to comment on your tab, please use the "Tab Notes" section located below.