Sound will begin in 5 seconds

halo

01234567891011121314151617181920212223
E
B
G
D
A
E
B
0 1 2 3 4 5 6 7 8 9 10 11 12 13 14 15 16 17 18 19 20 21 22 23
Song Science #1: How Pros Use 6 Chords to Write Hit Songs
(/) Slide Up  (\) Slide Down  (h) Hammer On  (p) Pull Off  (b) Bend (r) Release (v) Vibrato

Stave 1:

G|--------------------------------------------------------------0--
D|------------------------7----------------------------------------
A|--0h1/7b---7-----9--10-----10--9--10--7--10--5-----7b------------
E|-----------------------------------------------------------------

Stave 2:

G|--------------------------------------------------------------------------------
D|--------------------------------------------------------------------------------
A|--------------------7b------------9b------------10b------------12b---12--10--9--
E|--10\------0--0--0-------0--0--0-------0--0--0--------0--0--0-------------------

Stave 3:

G|-------------------------------------------------
D|-------------------------------------------------
A|--7--7-----9--9-----10--10-----12-----12--10--9--
E|--------0--------0----------0--------------------

Stave 4:

G|-----------------------------------------------|------------------------------------
D|-----------------------------------------14\8--|-----8-----8-----7--8--10--8--7-----
A|--14-----14--15--17--14--15--17--15--14--------|--7-----7-----7------------------7--
E|-----------------------------------------------|------------------------------------

http://www.guitartabcreator.com
Guitar Tab Creator is intended to store guitar tab created through the tool. It currently does not support in-line text editing. Any text you place in here will be lost. If you need to comment on your tab, please use the "Tab Notes" section located below.