Spring Any Day Now - Fred Frith

01234567891011121314151617181920212223
E
B
G
D
A
E
B
0 1 2 3 4 5 6 7 8 9 10 11 12 13 14 15 16 17 18 19 20 21 22 23
(/) Slide Up  (\) Slide Down  (h) Hammer On  (p) Pull Off  (b) Bend (r) Release (v) Vibrato

Stave 1:

E|--------5-------------------------7-5--------2-3----5-3----------------
B|---7------8----------7-5-----------------3-5-------------------5-8-7---
G|------------6------6-----7------------------------------4----7-------7-
D|-7---------------7------------4/5--------------------------------------
A|-----------------------------------------------------------------------
E|-----------------------------------------------------------------------

Stave 2:

E|-----10---------------7-5-----------------------7-5--------2-3----5-3----------------
B|---------------5-7-----------------7-5-----------------3-5-------------------5-8-7---
G|-----------6-7------------4----6-7-----7------------------------------4----7-------7-
D|-6/7----------------------------------------4/5--------------------------------------
A|-------------------------------------------------------------------------------------
E|-------------------------------------------------------------------------------------

Stave 3:

E|-----10------------------------------------5----0----
B|---------------5-7-6-5-4----9-8-6-11-------7----3----
G|-----------6-7--------------------8-----11-7----4----
D|-6/7------------------------------------9--9----6----
A|-----------------------------------------------------
E|-----------------------------------------------------

							http://www.guitartabcreator.com
Chords

Instruments
{"strings":[[[".",".","_",5,".",".","_",".",".",".",".",".","_",".",".",".",7,5,"_",".",".",2,3,"_",5,3,".","_",".",".",".",".","."],[".",7,"_",".",8,".","_",".",".",7,5,".","_",".",".",".",".",".","_",3,5,".",".","_",".",".",".","_",".",5,8,7,"."],[".",".","_",".",".",6,"_",".",6,".",".",7,"_",".",".",".",".",".","_",".",".",".",".","_",".",".",4,"_",7,".",".",".",7],[7,".","_",".",".",".","_",7,".",".",".",".","_",4,"/",5,".",".","_",".",".",".",".","_",".",".",".","_",".",".",".",".","."],[".",".","_",".",".",".","_",".",".",".",".",".","_",".",".",".",".",".","_",".",".",".",".","_",".",".",".","_",".",".",".",".","."],[".",".","_",".",".",".","_",".",".",".",".",".","_",".",".",".",".",".","_",".",".",".",".","_",".",".",".","_",".",".",".",".","."]],[[null,null,".",".",".",10,"_",".",".",".",".","_",7,5,".","_",".",".",".",".",".","_",".",".",".",7,5,"_",".",".",2,3,"_",5,3,".","_",".",".",".",".","."],[null,null,".",".",".",".","_",".",".",5,7,"_",".",".",".","_",".",".",7,5,".","_",".",".",".",".",".","_",3,5,".",".","_",".",".",".","_",".",5,8,7,"."],[null,null,".",".",".",".","_",6,7,".",".","_",".",".",4,"_",6,7,".",".",7,"_",".",".",".",".",".","_",".",".",".",".","_",".",".",4,"_",7,".",".",".",7],[null,null,6,"/",7,".","_",".",".",".",".","_",".",".",".","_",".",".",".",".",".","_",4,"/",5,".",".","_",".",".",".",".","_",".",".",".","_",".",".",".",".","."],[null,null,".",".",".",".","_",".",".",".",".","_",".",".",".","_",".",".",".",".",".","_",".",".",".",".",".","_",".",".",".",".","_",".",".",".","_",".",".",".",".","."],[null,null,".",".",".",".","_",".",".",".",".","_",".",".",".","_",".",".",".",".",".","_",".",".",".",".",".","_",".",".",".",".","_",".",".",".","_",".",".",".",".","."]],[[".",".",".",10,"_",".",".",".",".",".",".",".","_",".",".",".",".","_",".",5,"_",0,"_"],[".",".",".",".","_",".",".",5,7,6,5,4,"_",9,8,6,11,"_",".",7,"_",3,"_"],[".",".",".",".","_",6,7,".",".",".",".",".","_",".",".",".",8,"_",11,7,"_",4,"_"],[6,"/",7,".","_",".",".",".",".",".",".",".","_",".",".",".",".","_",9,9,"_",6,"_"],[".",".",".",".","_",".",".",".",".",".",".",".","_",".",".",".",".","_",".",".","_",".","_"],[".",".",".",".","_",".",".",".",".",".",".",".","_",".",".",".",".","_",".",".","_",".","_"]]],"numberofstrings":6,"notes":["E","B","G","D","A","E","B"],"capo":0,"stringnotes":["E4","B3","G3","D3","A2","E2"],"comments":["Stave 1:","Stave 2:","Stave 3:"],"timing":[["E","W","W",null,null,null,null,null,null,null,null,null,null,null,null,null,null,null,null,null,null,null,null,null,null,null,null,null,null,null,null,null,null,"W",null,"W"],[null,null,"W","W","W","W",null,"W","W","W","W",null,"W","W","W",null,"W","W","W","W","W",null,"W",null,"W","W","W",null,"W","W","W","W",null,"W","W","W",null,"W","W","W","W","W"],["S",null,"S","S",null,"S","S","S","S","S","S","S",null,"S","S","S","S",null,"S","S",null,"S"]],"timingvisible":false,"tabcounter":23,"stave":2,"totalstaves":3,"instrument":"6guitar","selectedtuning":"6_standard","version":"13"}

Member for

1 month 2 weeks
Submitted by bilt_ on Thu, 2021-03-04 08:46