Sound will begin in 5 seconds

Touch The Sky By Hillsong United

Chords
01234567891011121314151617181920212223
E
B
G
D
A
E
B
0 1 2 3 4 5 6 7 8 9 10 11 12 13 14 15 16 17 18 19 20 21 22 23
Song Science #1: How Pros Use 6 Chords to Write Hit Songs
(/) Slide Up  (\) Slide Down  (h) Hammer On  (p) Pull Off  (b) Bend (r) Release (v) Vibrato

Stave 1:

E|-------------------------------4--
B|--2----3----5------7------------5--
G|--2----2----4------7------------4--
D|--2----2----6------7---------------
A|--0----0---------------------------
E|----------------------------------

Stave 2:

E|--5-----5-----5-----7-----10-----10-----10-----9-----7-----7-----7-----5-----12-----12-----12-----
B|-----5-----5-----5-----5--------------------------------------------------5-----------------------
G|------------------------------9------9------9-----9-----9-----9-----9------------9------9------9--
D|--------------------------------------------------------------------------------------------------
A|--------------------------------------------------------------------------------------------------
E|--------------------------------------------------------------------------------------------------

Stave 3:

E|--10-----9-----9-----9-----
B|---------------------------
G|------9-----9-----9-----9--
D|---------------------------
A|---------------------------
E|---------------------------

Stave 4:

E|--12--12--12--12--12--12--12--12--12--12--12--12--12--12--
B|----------------------------------------------------------
G|----------------------------------------------------------
D|----------------------------------------------------------
A|----------------------------------------------------------
E|----------------------------------------------------------

Stave 5:

E|-------------------9--9--10p9---------------------------------10--9------
B|-----10-----10----------------------------------10-----10------------12--
G|--9------9------9----------------------------9------9------9-------------
D|-------------------------------------------------------------------------
A|-------------------------------------------------------------------------
E|-------------------------------------------------------------------------

http://www.guitartabcreator.com
Guitar Tab Creator is intended to store guitar tab created through the tool. It currently does not support in-line text editing. Any text you place in here will be lost. If you need to comment on your tab, please use the "Tab Notes" section located below.