Sound will begin in 5 seconds

remain By Starfield

01234567891011121314151617181920212223
E
B
G
D
A
E
B
0 1 2 3 4 5 6 7 8 9 10 11 12 13 14 15 16 17 18 19 20 21 22 23
Song Science #1: How Pros Use 6 Chords to Write Hit Songs
(/) Slide Up  (\) Slide Down  (h) Hammer On  (p) Pull Off  (b) Bend (r) Release (v) Vibrato

Stave 1:

E|---------------------------
B|---8-------6-------4---1---
G|---------------------------
D|-------8-------6-----------
A|---------------------------
E|---------------------------

Stave 2:

E|-------6-------
B|---8-------6---
G|---------------
D|---------------
A|---------------
E|---------------

Stave 3:

E|---------------------
B|---------------------
G|---------------------
D|---6---------8-------
A|---6---------8-------
E|---4---------6-------

Stave 4:

E|------------------------------
B|---18---------16---------15---
G|------------------------------
D|------------------------------
A|------------------------------
E|------------------------------

Stave 5:

E|------------------------------------------------------------------------------------
B|---11---8---9---11------11---8---9---11---15---16---16---18---18---18---------------
G|------------------------------------------------------------------------------------
D|------------------------------------------------------------------------------------
A|------------------------------------------------------------------------------------
E|------------------------------------------------------------------------------------

Stave 6:

E|----------------------------------------------------------------------------------------------
B|---16---16---16---16---16---16---16---18---18---18---18---18---18---18---18---18---------16---
G|----------------------------------------------------------------------------------------------
D|----------------------------------------------------------------------------------------------
A|----------------------------------------------------------------------------------------------
E|----------------------------------------------------------------------------------------------

http://www.guitartabcreator.com
Guitar Tab Creator is intended to store guitar tab created through the tool. It currently does not support in-line text editing. Any text you place in here will be lost. If you need to comment on your tab, please use the "Tab Notes" section located below.