Sound will begin in 5 seconds

Love Goes On by ( Recharge )

Chords
01234567891011121314151617181920212223
E
B
G
D
A
E
B
0 1 2 3 4 5 6 7 8 9 10 11 12 13 14 15 16 17 18 19 20 21 22 23
Song Science #1: How Pros Use 6 Chords to Write Hit Songs
(/) Slide Up  (\) Slide Down  (h) Hammer On  (p) Pull Off  (b) Bend (r) Release (v) Vibrato

Stave 1:

E|-----------------------------------------
B|--11--10------13--11--10------13--13/15--
G|----------10--------------10-------------
D|-----------------------------------------
A|-----------------------------------------
E|-----------------------------------------

Stave 2:

E|-----------------------------------------------13--
B|---------11------------------10--------------------
G|-----10------10----------10------10--------10------
D|--8----------------9h12----------------10----------
A|---------------------------------------------------
E|---------------------------------------------------

Stave 3:

E|--_------
B|--11--13--
G|--10--12--
D|--8---10--
A|--_------
E|--_------

Stave 4:

E|--_--------------------------
B|--11--10--13--15--11--13--13--
G|--10--10--12--14--10--10--12--
D|--8---8---10--12--8---10--10--
A|--_--------------------------
E|--_--------------------------

Stave 5:

E|--_-------------------------
B|--10--13--11--13--10--13--8--
G|--10--10--10--10--10--10--9--
D|--10--10--10--10--10--10-----
A|--_-------------------------
E|--_-------------------------

Stave 6:

E|--_--------------------------
B|--11--10--13--15--11--15--13--
G|--10--10--12--14--10--14--12--
D|--8---8---10--12--8---12--10--
A|--_--------------------------
E|--_--------------------------

http://www.guitartabcreator.com
Guitar Tab Creator is intended to store guitar tab created through the tool. It currently does not support in-line text editing. Any text you place in here will be lost. If you need to comment on your tab, please use the "Tab Notes" section located below.