Sound will begin in 5 seconds

Jesus Paid it All

Chords
01234567891011121314151617181920212223
E
B
G
D
A
E
B
0 1 2 3 4 5 6 7 8 9 10 11 12 13 14 15 16 17 18 19 20 21 22 23
Song Science #1: How Pros Use 6 Chords to Write Hit Songs
(/) Slide Up  (\) Slide Down  (h) Hammer On  (p) Pull Off  (b) Bend (r) Release (v) Vibrato

Stave 1:

E|--------2-----------------2-----------------2-----------------2-----------
B|-----0-----0-----0-----0-----0-----0-----0-----0-----0-----0-----0-----0--
G|--4-----------4-----4-----------4-----3-----------3-----4-----------4-----
D|--------------------------------------------------------------------------
A|--------------------------------------------------------------------------
E|--------------------------------------------------------------------------

Stave 2:

E|--------2-----------------2-----------
B|-----0-----0-----0-----------0-----0--
G|--1-----------1--------1--------1-----
D|--------------------2-----------------
A|--------------------------------------
E|--------------------------------------

Stave 3:

E|----------------------------------2-------------------------------------
B|-------------------------------------0-----0----------------------------
G|--11--11--8--8--9--8--4--4--3--3--------3-----4--4--9--9--8--8--11--11--
D|------------------------------------------------------------------------
A|------------------------------------------------------------------------
E|------------------------------------------------------------------------

Stave 4:

E|------------------12--11--
B|--12------12--15----------
G|------11------------------
D|--------------------------
A|--------------------------
E|--------------------------

Stave 5:

E|----
B|----
G|----
D|----
A|----
E|----

Stave 6:

E|-------
B|-------
G|--8--9--
D|--9--9--
A|--9--7--
E|--7-----

Stave 7:

E|----------------------
B|----------------------
G|--4--8--9--8--6-----9--
D|--4--8--9--8--6--9--9--
A|--2--6--7--6--4--6--7--
E|----------------------

http://www.guitartabcreator.com
Guitar Tab Creator is intended to store guitar tab created through the tool. It currently does not support in-line text editing. Any text you place in here will be lost. If you need to comment on your tab, please use the "Tab Notes" section located below.