Sound will begin in 5 seconds

Glory By Phil Wickham (Church)

01234567891011121314151617181920212223
E
B
G
D
A
E
B
0 1 2 3 4 5 6 7 8 9 10 11 12 13 14 15 16 17 18 19 20 21 22 23
Song Science #1: How Pros Use 6 Chords to Write Hit Songs
(/) Slide Up  (\) Slide Down  (h) Hammer On  (p) Pull Off  (b) Bend (r) Release (v) Vibrato

Stave 1:

E|------------------12--11------11--------------------------12--11--
B|--------------------------14------14--12--------------------------
G|--13--16--13--11--------------------------13--16--13--11----------
D|------------------------------------------------------------------
A|------------------------------------------------------------------
E|------------------------------------------------------------------

Stave 2:

E|----------------------------------
B|----------------------------------
G|-----9--8--4--3--------9--8--4/6--
D|--6--------------4--6-------------
A|----------------------------------
E|----------------------------------

Stave 3:

E|----------------------------------------------------------11------
B|--12--11--9--4--4--2--2--0--------12--11--9--7--9--9--11------12--
G|------------------------------------------------------------------
D|------------------------------------------------------------------
A|------------------------------------------------------------------
E|------------------------------------------------------------------

Stave 4:

E|------------------------------
B|--12--12--11--11--9--9--7--7--
G|------------------------------
D|------------------------------
A|------------------------------
E|------------------------------

Stave 5:

E|----------------------------------------------------------------------------14--14--14--
B|--16--16--14--14--12--12--14--14--17--17--16--16--14--14--------16--16--16--------------
G|----------------------------------------------------------------------------------------
D|----------------------------------------------------------------------------------------
A|----------------------------------------------------------------------------------------
E|----------------------------------------------------------------------------------------

Stave 6:

E|----
B|----
G|----
D|----
A|----
E|----

http://www.guitartabcreator.com
Guitar Tab Creator is intended to store guitar tab created through the tool. It currently does not support in-line text editing. Any text you place in here will be lost. If you need to comment on your tab, please use the "Tab Notes" section located below.