Sound will begin in 5 seconds

Give Me Faith By Elevation Worship

01234567891011121314151617181920212223
E
B
G
D
A
E
B
0 1 2 3 4 5 6 7 8 9 10 11 12 13 14 15 16 17 18 19 20 21 22 23
Song Science #1: How Pros Use 6 Chords to Write Hit Songs
(/) Slide Up  (\) Slide Down  (h) Hammer On  (p) Pull Off  (b) Bend (r) Release (v) Vibrato

Stave 1:

E|--------10----------10----------9----------9----------7----------7--------7--
B|-----------------------------------------------------------------------------
G|-----9-----------9-----------9----------9----------9----------9--------9-----
D|--7-----------7-----------7----------7----------7----------7--------7--------
A|-----------------------------------------------------------------------------
E|-----------------------------------------------------------------------------

Stave 2:

E|----------5--
B|--2--3/5-----
G|-------------
D|-------------
A|-------------
E|-------------

Stave 3:

E|----9---7--9---5--
B|----10--9--10--5--
G|----9---9--11--7--
D|------------------
A|------------------
E|------------------

Stave 4:

E|--9------------9-----------------------------------------9------------9------------9----------------
B|--------10-----------10-----12-----10------------10--12--------10-----------10-----------10--12--9--
G|-----9------9-----9------9------9------9------9-------------9------9-----9------9-----9-------------
D|------------------------------------------11--------------------------------------------------------
A|----------------------------------------------------------------------------------------------------
E|----------------------------------------------------------------------------------------------------

Stave 5:

E|--------------10-----9-------------------9---------------------------9------------9------------
B|-----9h10------------------10-----12-----------10-----9-----9h10-----------10-----------10-----
G|--9--------9------9-----9------9------9-----9------9-----9--------9-----9------9-----9------9--
D|-----------------------------------------------------------------------------------------------
A|-----------------------------------------------------------------------------------------------
E|-----------------------------------------------------------------------------------------------

Stave 6:

E|------------------------------9---
B|--12-----10-----12-----10-----10--
G|------9------9------9------9--9---
D|----------------------------------
A|----------------------------------
E|----------------------------------

Stave 7:

E|----
B|----
G|----
D|----
A|----
E|----

Stave 8:

E|--9------------9------------9------------12------------9------------9-------------------12--
B|--------10-----------10-----------10------------10-----------10-----------10-----9--10------
G|-----9------9-----9------9-----9------9------9------9-----9------9-----9------9-------------
D|--------------------------------------------------------------------------------------------
A|--------------------------------------------------------------------------------------------
E|--------------------------------------------------------------------------------------------

Stave 9:

E|--10--9---------12-------------
B|---------10---------10--9--10--
G|-------------9-----------------
D|-------------------------------
A|-------------------------------
E|-------------------------------

Stave 10:

E|----------------------------------------------------
B|--12----14----10----9----10----12----14----15/5/17--
G|----------------------------------------------------
D|----------------------------------------------------
A|----------------------------------------------------
E|----------------------------------------------------

Stave 11:

E|------17--16--------------------
B|--17----------17--10--9--10/17--
G|--------------------------------
D|--------------------------------
A|--------------------------------
E|--------------------------------

http://www.guitartabcreator.com
Guitar Tab Creator is intended to store guitar tab created through the tool. It currently does not support in-line text editing. Any text you place in here will be lost. If you need to comment on your tab, please use the "Tab Notes" section located below.