Sound will begin in 5 seconds

Forever Reign By For All Seasons

01234567891011121314151617181920212223
E
B
G
D
A
E
B
0 1 2 3 4 5 6 7 8 9 10 11 12 13 14 15 16 17 18 19 20 21 22 23
Song Science #1: How Pros Use 6 Chords to Write Hit Songs
(/) Slide Up  (\) Slide Down  (h) Hammer On  (p) Pull Off  (b) Bend (r) Release (v) Vibrato

Stave 1:

E|----------------------------------
B|-7-9-9-----------7-9-9------------
G|-------8--8-9--9-------8--8-9--11-
D|----------------------------------
A|----------------------------------
E|----------------------------------

Stave 2:

E|---------------------------------
B|-----7-------7---7---7---9---9---
G|-9-----9-9-----9---9---9---9---9-
D|---9-------9---------------------
A|---------------------------------
E|---------------------------------

Stave 3:

E|-------------------------------------------------------------------12-
B|-----------------------------7-7-7-7-7-7-7-9-9-9-9-9-9-12-12-12-12----
G|-9-9-9-9-9-9-9-9-9-9-9-9-9-9------------------------------------------
D|----------------------------------------------------------------------
A|----------------------------------------------------------------------
E|----------------------------------------------------------------------

Stave 4:

E|-11----11----11----11----12----12----12----12----14----14----14----14----
B|----12----12----12----12----12----12----12----12----12----12----12----12-
G|-------------------------------------------------------------------------
D|-------------------------------------------------------------------------
A|-------------------------------------------------------------------------
E|-------------------------------------------------------------------------

Stave 5:

E|-------12----------12----------12----------12----
B|-14-12----12-14-12----12-12-------12-12-------12-
G|----------------------------13----------13-------
D|-------------------------------------------------
A|-------------------------------------------------
E|-------------------------------------------------

Stave 6:

E|-----------------------------------------------------------7-
B|-----------------------------------------------------------9-
G|-----------------------------------------------------------9-
D|-----------------------------------------------------------9-
A|-7-7-7-------4-4-4-2-2-2-2-7-7-7-2-2-2-7-7-7-2-2-2-2-7-7-7-7-
E|-------8-8-8-------------------------------------------------

Stave 7:

E|-------------------------------------------------------------------------
B|-12-12-----12-12-----7-7-9-9---------12-12-----12-12-----7-7-9-9---------
G|-------9-9-------9-9---------8-8-9-9-------9-9-------9-9---------8-8-9-9-
D|-------------------------------------------------------------------------
A|-------------------------------------------------------------------------
E|-------------------------------------------------------------------------

Stave 8:

E|-
B|-
G|-
D|-
A|-
E|-

http://www.guitartabcreator.com
Guitar Tab Creator is intended to store guitar tab created through the tool. It currently does not support in-line text editing. Any text you place in here will be lost. If you need to comment on your tab, please use the "Tab Notes" section located below.