Sound will begin in 5 seconds

Be Still By Steffany Frizzell

01234567891011121314151617181920212223
E
B
G
D
A
E
B
0 1 2 3 4 5 6 7 8 9 10 11 12 13 14 15 16 17 18 19 20 21 22 23
Song Science #1: How Pros Use 6 Chords to Write Hit Songs
(/) Slide Up  (\) Slide Down  (h) Hammer On  (p) Pull Off  (b) Bend (r) Release (v) Vibrato

Stave 1:

E|----------14--------------14----------
A|--15--------------15--------------15--
D|------14------14------14------14------
G|--------------------------------------
B|--------------------------------------
E|--------------------------------------

Stave 2:

E|-------------14-------------14---------------------14--
A|------15p14----------15p14----------15------15p14------
D|--14-------------14-------------14------14-------------
G|-------------------------------------------------------
B|-------------------------------------------------------
E|-------------------------------------------------------

Stave 3:

E|---------------------------------------------------------------------------------------
A|--2--2--2--5--5--5--2--2--2--0--0--0------2--2--2--7--7--7--5--5--5--3--3--3--2--2--2--
D|---------------------------------------------------------------------------------------
G|---------------------------------------------------------------------------------------
B|---------------------------------------------------------------------------------------
E|---------------------------------------------------------------------------------------

Stave 4:

E|----------------------------------------------------------------
A|--14--14--19--19--17--17--15--15----14----15----14----12----10--
D|----------------------------------------------------------------
G|----------------------------------------------------------------
B|----------------------------------------------------------------
E|----------------------------------------------------------------

Stave 5:

E|-----------------------------------------------------------
A|-----------------------------------------------------------
D|--14--16--11--7--9--11--14--11--4------18--19--18--16--14--
G|-----------------------------------------------------------
B|-----------------------------------------------------------
E|-----------------------------------------------------------

http://www.guitartabcreator.com
Guitar Tab Creator is intended to store guitar tab created through the tool. It currently does not support in-line text editing. Any text you place in here will be lost. If you need to comment on your tab, please use the "Tab Notes" section located below.