Sound will begin in 5 seconds

Anchor By Hillsong Worship

01234567891011121314151617181920212223
E
B
G
D
A
E
B
0 1 2 3 4 5 6 7 8 9 10 11 12 13 14 15 16 17 18 19 20 21 22 23
Song Science #1: How Pros Use 6 Chords to Write Hit Songs
(/) Slide Up  (\) Slide Down  (h) Hammer On  (p) Pull Off  (b) Bend (r) Release (v) Vibrato

Stave 1:

E|------------------------------------------------------------------------------------------
B|---------9------9---------------9------9--------------------------------------------------
G|------9-----11-----9---------9-----11-----9------11--9--11--9--11--8-----9--11--9--11--8--
D|--11----------------------9-------------------------------------------9-------------------
A|------------------------------------------------------------------------------------------
E|------------------------------------------------------------------------------------------

Stave 2:

E|--12--12--11------------
B|--12--12--12----17--16--
G|--13--13--11----14--14--
D|----------------14--14--
A|------------------------
E|------------------------

Stave 3:

E|--17--16--14--12--
B|--17--17--16--14--
G|------------------
D|------------------
A|------------------
E|------------------

Stave 4:

E|-----------------------------------------------------------------
B|----16----14----17----10----9-----------9----10----9----7----16--
G|---------------------------------9--11---------------------------
D|-----------------------------------------------------------------
A|-----------------------------------------------------------------
E|-----------------------------------------------------------------

Stave 5:

E|----------------------------
B|----------------------------
G|--9----14----13----11----9--
D|----------------------------
A|----------------------------
E|----------------------------

Stave 6:

E|-----------------
B|-------------16--
G|--9--14--16------
D|-----------------
A|-----------------
E|-----------------

http://www.guitartabcreator.com
Guitar Tab Creator is intended to store guitar tab created through the tool. It currently does not support in-line text editing. Any text you place in here will be lost. If you need to comment on your tab, please use the "Tab Notes" section located below.