Sound will begin in 5 seconds

Sheena is a Punk Rocker by The Ramones

01234567891011121314151617181920212223
E
B
G
D
A
E
B
0 1 2 3 4 5 6 7 8 9 10 11 12 13 14 15 16 17 18 19 20 21 22 23
(/) Slide Up  (\) Slide Down  (h) Hammer On  (p) Pull Off  (b) Bend (r) Release (v) Vibrato

Stave 1:

G|--------------------------|--------------------------|--------------------------|--------------------------|--
D|--------------------------|--------------------------|--------------------------|--------------------------|--
A|--2--3--3--3-----3--3--3--|--2--3--3--3-----3--3--3--|--2--3--3--3-----3--3--3--|--2--3--3--3-----3--3--3--|--
E|--------------------------|--------------------------|--------------------------|--------------------------|--

Stave 2:

G|--------------------------|--------------------------|--------------------------|--------------------------|--
D|--------------------------|--------------------------|--------------------------|--------------------------|--
A|--3-----3--3-----3--3--3--|--3-----3--3-----3--3--3--|--3-----3--3-----3--3--3--|--3-----3--3-----3--3--3--|--
E|--------------------------|--------------------------|--------------------------|--------------------------|--

Stave 3:

G|--------------------------|--------------------------|--------------------------|--------------------------|--
D|--------------------------|--------------------------|--------------------------|--------------------------|--
A|--------------------------|--------------------------|--3-----3--3-----3--3--3--|--3-----3--3-----3--3--3--|--
E|--3-----3--3-----3--3--3--|--3-----3--3-----3--3--3--|--------------------------|--------------------------|--

Stave 4:

G|--------------------------|--------------------------|--------------------------|--------------------------|--
D|--------------------------|--------------------------|--------------------------|--------------------------|--
A|--0-----0--0-----0--0--0--|--------------------------|--0-----0--0-----0--0--0--|--------------------------|--
E|--------------------------|--1-----1--1-----1--1--1--|--------------------------|--1-----1--1-----1--1--1--|--

Stave 5:

G|--------------------------|--------------------------|--------------------------|--------------------------|--
D|--------------------------|--------------------------|--------------------------|--------------------------|--
A|--3-----3--3-----3--3--3--|--3-----3--3-----3--3--3--|--------------------------|--------------------------|--
E|--------------------------|--------------------------|--3-----3--3-----3--3--3--|--3-----3--3-----3--3--3--|--

Stave 6:

G|--------------------------|--------------------------|--
D|--------------------------|--------------------------|--
A|--------------------------|--------------------------|--
E|--3-----3--3-----3--3--3--|--3-----3--3-----3--3--3--|--

Stave 7:

G|--------------------------|--------------------------|--------------------------|--------------------------
D|--------------------------|--3-----3-----5-----5-----|--------------------------|--------------------------
A|--3-----3--3-----3--3--3--|--------------------------|--2--3--3--3-----3--3--3--|--2--3--3--3-----3--3--3--
E|--------------------------|--------------------------|--------------------------|--------------------------

Stave 8:

G|--------------------------|--------------------------|--------------------------|--------------------------|--
D|--------------------------|--------------------------|--------------------------|--------------------------|--
A|--------------------------|--------------------------|--3-----3--3-----3--3--3--|--3-----3--3-----3--3--3--|--
E|--1-----1--1-----1--1--1--|--1-----1--1-----1--1--1--|--------------------------|--------------------------|--

Stave 9:

G|--------------------------|--------------------------|--------------------------|--------------------------|--
D|--------------------------|--------------------------|--------------------------|--------------------------|--
A|--------------------------|--------------------------|--1-----1--1-----1--1--1--|--1-----1--1-----1--1--1--|--
E|--3-----3--3-----3--3--3--|--3-----3--3-----3--3--3--|--------------------------|--------------------------|--

							http://www.guitartabcreator.com
Note:

Stave 1: Intro

Staves 2 thru 6: Verse

Stave 7: Repeat 1st & 2nd bars (Chorus) 7x; then 3rd and 4th bars 1x

Stave 8 & 9: Bridge

 

Guitar Tab Creator is intended to store guitar tab created through the tool. It currently does not support in-line text editing. Any text you place in here will be lost. If you need to comment on your tab, please use the "Tab Notes" section located below.